ISO-10303-21;
HEADER;
/* Generated by software containing ST-Developer
 * from STEP Tools, Inc. (www.steptools.com) 
 */

FILE_DESCRIPTION(
/* description */ (''),
/* implementation_level */ '2;1');

FILE_NAME(
/* name */ 
'X:\\VIRI ZA WEB\\CAD DATOTEKE\\ELEKTRI\X2\010C\X0\NI CILINDRI PNCE\\D
ODATNA OPREMA ELEKTRI\X2\010C\X0\NI CILINDRI\\PRITRDILA\\BLANKING SCRE
W\\izvoz\\CAD_69156.stp',
/* time_stamp */ '2016-06-15T10:25:54+02:00',
/* author */ ('Hypex'),
/* organization */ ('Hypex'),
/* preprocessor_version */ 'ST-DEVELOPER v16.1',
/* originating_system */ 'Autodesk Inventor 2016',
/* authorisation */ '');

FILE_SCHEMA (('AUTOMOTIVE_DESIGN { 1 0 10303 214 3 1 1 }'));
ENDSEC;

DATA;
#10=MECHANICAL_DESIGN_GEOMETRIC_PRESENTATION_REPRESENTATION('',(#262,#256,
#248,#255,#250,#246,#244,#261,#263,#259,#258,#247,#249,#245,#251,#252,#260,
#253,#257,#254),#476);
#11=SHAPE_REPRESENTATION_RELATIONSHIP('SRR','None',#485,#12);
#12=ADVANCED_BREP_SHAPE_REPRESENTATION('',(#13),#475);
#13=MANIFOLD_SOLID_BREP('Solid1',#283);
#14=LINE('',#443,#26);
#15=LINE('',#445,#27);
#16=LINE('',#446,#28);
#17=LINE('',#449,#29);
#18=LINE('',#450,#30);
#19=LINE('',#453,#31);
#20=LINE('',#454,#32);
#21=LINE('',#462,#33);
#22=LINE('',#464,#34);
#23=LINE('',#465,#35);
#24=LINE('',#468,#36);
#25=LINE('',#470,#37);
#26=VECTOR('',#355,3.09649730810374);
#27=VECTOR('',#356,5.77350269189626);
#28=VECTOR('',#357,3.09649730810374);
#29=VECTOR('',#360,3.09649730810374);
#30=VECTOR('',#361,5.77350269189626);
#31=VECTOR('',#364,3.09649730810374);
#32=VECTOR('',#365,5.77350269189626);
#33=VECTOR('',#374,5.77350269189626);
#34=VECTOR('',#375,5.77350269189626);
#35=VECTOR('',#376,5.77350269189626);
#36=VECTOR('',#381,3.09649730810374);
#37=VECTOR('',#384,3.09649730810375);
#38=(
BOUNDED_CURVE()
B_SPLINE_CURVE(2,(#417,#418,#419),.UNSPECIFIED.,.F.,.F.)
B_SPLINE_CURVE_WITH_KNOTS((3,3),(0.0497892232899802,0.671038079189607),
 .UNSPECIFIED.)
CURVE()
GEOMETRIC_REPRESENTATION_ITEM()
RATIONAL_B_SPLINE_CURVE((1.02752097591503,1.18647902408497,1.02752097591503))
REPRESENTATION_ITEM('')
);
#39=(
BOUNDED_CURVE()
B_SPLINE_CURVE(2,(#421,#422,#423),.UNSPECIFIED.,.F.,.F.)
B_SPLINE_CURVE_WITH_KNOTS((3,3),(0.0497892232899801,0.671038079189607),
 .UNSPECIFIED.)
CURVE()
GEOMETRIC_REPRESENTATION_ITEM()
RATIONAL_B_SPLINE_CURVE((1.02752097591503,1.18647902408496,1.02752097591503))
REPRESENTATION_ITEM('')
);
#40=(
BOUNDED_CURVE()
B_SPLINE_CURVE(2,(#425,#426,#427),.UNSPECIFIED.,.F.,.F.)
B_SPLINE_CURVE_WITH_KNOTS((3,3),(0.0497892232899808,0.671038079189608),
 .UNSPECIFIED.)
CURVE()
GEOMETRIC_REPRESENTATION_ITEM()
RATIONAL_B_SPLINE_CURVE((1.02752097591503,1.18647902408497,1.02752097591503))
REPRESENTATION_ITEM('')
);
#41=(
BOUNDED_CURVE()
B_SPLINE_CURVE(2,(#429,#430,#431),.UNSPECIFIED.,.F.,.F.)
B_SPLINE_CURVE_WITH_KNOTS((3,3),(0.0497892232899812,0.671038079189608),
 .UNSPECIFIED.)
CURVE()
GEOMETRIC_REPRESENTATION_ITEM()
RATIONAL_B_SPLINE_CURVE((1.02752097591503,1.18647902408497,1.02752097591503))
REPRESENTATION_ITEM('')
);
#42=(
BOUNDED_CURVE()
B_SPLINE_CURVE(2,(#433,#434,#435),.UNSPECIFIED.,.F.,.F.)
B_SPLINE_CURVE_WITH_KNOTS((3,3),(0.0497892232899813,0.671038079189609),
 .UNSPECIFIED.)
CURVE()
GEOMETRIC_REPRESENTATION_ITEM()
RATIONAL_B_SPLINE_CURVE((1.02752097591503,1.18647902408497,1.02752097591503))
REPRESENTATION_ITEM('')
);
#43=(
BOUNDED_CURVE()
B_SPLINE_CURVE(2,(#436,#437,#438),.UNSPECIFIED.,.F.,.F.)
B_SPLINE_CURVE_WITH_KNOTS((3,3),(0.0497892232899807,0.671038079189608),
 .UNSPECIFIED.)
CURVE()
GEOMETRIC_REPRESENTATION_ITEM()
RATIONAL_B_SPLINE_CURVE((1.02752097591503,1.18647902408497,1.02752097591503))
REPRESENTATION_ITEM('')
);
#44=TOROIDAL_SURFACE('',#291,2.9,0.5);
#45=TOROIDAL_SURFACE('',#298,2.9,0.5);
#46=PLANE('',#290);
#47=PLANE('',#296);
#48=PLANE('',#303);
#49=PLANE('',#304);
#50=PLANE('',#305);
#51=PLANE('',#309);
#52=PLANE('',#311);
#53=PLANE('',#312);
#54=PLANE('',#313);
#55=PLANE('',#314);
#56=CYLINDRICAL_SURFACE('',#288,3.);
#57=CYLINDRICAL_SURFACE('',#294,2.4);
#58=CYLINDRICAL_SURFACE('',#310,6.4);
#59=FACE_BOUND('',#90,.T.);
#60=FACE_BOUND('',#92,.T.);
#61=FACE_BOUND('',#95,.T.);
#62=FACE_BOUND('',#97,.T.);
#63=FACE_BOUND('',#99,.T.);
#64=FACE_BOUND('',#101,.T.);
#65=FACE_BOUND('',#103,.T.);
#66=FACE_BOUND('',#105,.T.);
#67=FACE_BOUND('',#110,.T.);
#68=FACE_BOUND('',#112,.T.);
#69=FACE_BOUND('',#114,.T.);
#70=FACE_OUTER_BOUND('',#89,.T.);
#71=FACE_OUTER_BOUND('',#91,.T.);
#72=FACE_OUTER_BOUND('',#93,.T.);
#73=FACE_OUTER_BOUND('',#94,.T.);
#74=FACE_OUTER_BOUND('',#96,.T.);
#75=FACE_OUTER_BOUND('',#98,.T.);
#76=FACE_OUTER_BOUND('',#100,.T.);
#77=FACE_OUTER_BOUND('',#102,.T.);
#78=FACE_OUTER_BOUND('',#104,.T.);
#79=FACE_OUTER_BOUND('',#106,.T.);
#80=FACE_OUTER_BOUND('',#107,.T.);
#81=FACE_OUTER_BOUND('',#108,.T.);
#82=FACE_OUTER_BOUND('',#109,.T.);
#83=FACE_OUTER_BOUND('',#111,.T.);
#84=FACE_OUTER_BOUND('',#113,.T.);
#85=FACE_OUTER_BOUND('',#115,.T.);
#86=FACE_OUTER_BOUND('',#116,.T.);
#87=FACE_OUTER_BOUND('',#117,.T.);
#88=FACE_OUTER_BOUND('',#118,.T.);
#89=EDGE_LOOP('',(#182));
#90=EDGE_LOOP('',(#183));
#91=EDGE_LOOP('',(#184));
#92=EDGE_LOOP('',(#185));
#93=EDGE_LOOP('',(#186));
#94=EDGE_LOOP('',(#187));
#95=EDGE_LOOP('',(#188));
#96=EDGE_LOOP('',(#189));
#97=EDGE_LOOP('',(#190));
#98=EDGE_LOOP('',(#191));
#99=EDGE_LOOP('',(#192));
#100=EDGE_LOOP('',(#193));
#101=EDGE_LOOP('',(#194));
#102=EDGE_LOOP('',(#195));
#103=EDGE_LOOP('',(#196));
#104=EDGE_LOOP('',(#197,#198,#199,#200,#201,#202));
#105=EDGE_LOOP('',(#203));
#106=EDGE_LOOP('',(#204,#205,#206,#207));
#107=EDGE_LOOP('',(#208,#209,#210,#211));
#108=EDGE_LOOP('',(#212,#213,#214,#215));
#109=EDGE_LOOP('',(#216));
#110=EDGE_LOOP('',(#217));
#111=EDGE_LOOP('',(#218));
#112=EDGE_LOOP('',(#219,#220,#221,#222,#223,#224));
#113=EDGE_LOOP('',(#225));
#114=EDGE_LOOP('',(#226));
#115=EDGE_LOOP('',(#227,#228,#229,#230));
#116=EDGE_LOOP('',(#231,#232,#233,#234));
#117=EDGE_LOOP('',(#235,#236,#237,#238));
#118=EDGE_LOOP('',(#239));
#119=CIRCLE('',#286,3.);
#120=CIRCLE('',#287,2.4);
#121=CIRCLE('',#289,3.);
#122=CIRCLE('',#292,2.4);
#123=CIRCLE('',#293,2.9);
#124=CIRCLE('',#295,2.4);
#125=CIRCLE('',#297,6.4);
#126=CIRCLE('',#299,2.65);
#127=CIRCLE('',#302,4.87);
#128=CIRCLE('',#307,6.4);
#129=CIRCLE('',#308,6.1);
#130=VERTEX_POINT('',#391);
#131=VERTEX_POINT('',#393);
#132=VERTEX_POINT('',#396);
#133=VERTEX_POINT('',#400);
#134=VERTEX_POINT('',#402);
#135=VERTEX_POINT('',#405);
#136=VERTEX_POINT('',#408);
#137=VERTEX_POINT('',#411);
#138=VERTEX_POINT('',#415);
#139=VERTEX_POINT('',#416);
#140=VERTEX_POINT('',#420);
#141=VERTEX_POINT('',#424);
#142=VERTEX_POINT('',#428);
#143=VERTEX_POINT('',#432);
#144=VERTEX_POINT('',#439);
#145=VERTEX_POINT('',#442);
#146=VERTEX_POINT('',#444);
#147=VERTEX_POINT('',#448);
#148=VERTEX_POINT('',#452);
#149=VERTEX_POINT('',#456);
#150=VERTEX_POINT('',#458);
#151=VERTEX_POINT('',#461);
#152=VERTEX_POINT('',#463);
#153=EDGE_CURVE('',#130,#130,#119,.T.);
#154=EDGE_CURVE('',#131,#131,#120,.T.);
#155=EDGE_CURVE('',#132,#132,#121,.T.);
#156=EDGE_CURVE('',#133,#133,#122,.T.);
#157=EDGE_CURVE('',#134,#134,#123,.T.);
#158=EDGE_CURVE('',#135,#135,#124,.T.);
#159=EDGE_CURVE('',#136,#136,#125,.T.);
#160=EDGE_CURVE('',#137,#137,#126,.T.);
#161=EDGE_CURVE('',#138,#139,#38,.T.);
#162=EDGE_CURVE('',#140,#138,#39,.T.);
#163=EDGE_CURVE('',#141,#140,#40,.T.);
#164=EDGE_CURVE('',#142,#141,#41,.T.);
#165=EDGE_CURVE('',#143,#142,#42,.T.);
#166=EDGE_CURVE('',#139,#143,#43,.T.);
#167=EDGE_CURVE('',#144,#144,#127,.T.);
#168=EDGE_CURVE('',#145,#141,#14,.T.);
#169=EDGE_CURVE('',#146,#145,#15,.T.);
#170=EDGE_CURVE('',#146,#142,#16,.T.);
#171=EDGE_CURVE('',#147,#140,#17,.T.);
#172=EDGE_CURVE('',#145,#147,#18,.T.);
#173=EDGE_CURVE('',#148,#138,#19,.T.);
#174=EDGE_CURVE('',#147,#148,#20,.T.);
#175=EDGE_CURVE('',#149,#149,#128,.T.);
#176=EDGE_CURVE('',#150,#150,#129,.T.);
#177=EDGE_CURVE('',#148,#151,#21,.T.);
#178=EDGE_CURVE('',#151,#152,#22,.T.);
#179=EDGE_CURVE('',#152,#146,#23,.T.);
#180=EDGE_CURVE('',#151,#139,#24,.T.);
#181=EDGE_CURVE('',#152,#143,#25,.T.);
#182=ORIENTED_EDGE('',*,*,#153,.T.);
#183=ORIENTED_EDGE('',*,*,#154,.T.);
#184=ORIENTED_EDGE('',*,*,#155,.T.);
#185=ORIENTED_EDGE('',*,*,#153,.F.);
#186=ORIENTED_EDGE('',*,*,#154,.F.);
#187=ORIENTED_EDGE('',*,*,#156,.T.);
#188=ORIENTED_EDGE('',*,*,#157,.T.);
#189=ORIENTED_EDGE('',*,*,#158,.F.);
#190=ORIENTED_EDGE('',*,*,#156,.F.);
#191=ORIENTED_EDGE('',*,*,#159,.T.);
#192=ORIENTED_EDGE('',*,*,#157,.F.);
#193=ORIENTED_EDGE('',*,*,#158,.T.);
#194=ORIENTED_EDGE('',*,*,#160,.T.);
#195=ORIENTED_EDGE('',*,*,#155,.F.);
#196=ORIENTED_EDGE('',*,*,#160,.F.);
#197=ORIENTED_EDGE('',*,*,#161,.F.);
#198=ORIENTED_EDGE('',*,*,#162,.F.);
#199=ORIENTED_EDGE('',*,*,#163,.F.);
#200=ORIENTED_EDGE('',*,*,#164,.F.);
#201=ORIENTED_EDGE('',*,*,#165,.F.);
#202=ORIENTED_EDGE('',*,*,#166,.F.);
#203=ORIENTED_EDGE('',*,*,#167,.F.);
#204=ORIENTED_EDGE('',*,*,#164,.T.);
#205=ORIENTED_EDGE('',*,*,#168,.F.);
#206=ORIENTED_EDGE('',*,*,#169,.F.);
#207=ORIENTED_EDGE('',*,*,#170,.T.);
#208=ORIENTED_EDGE('',*,*,#163,.T.);
#209=ORIENTED_EDGE('',*,*,#171,.F.);
#210=ORIENTED_EDGE('',*,*,#172,.F.);
#211=ORIENTED_EDGE('',*,*,#168,.T.);
#212=ORIENTED_EDGE('',*,*,#162,.T.);
#213=ORIENTED_EDGE('',*,*,#173,.F.);
#214=ORIENTED_EDGE('',*,*,#174,.F.);
#215=ORIENTED_EDGE('',*,*,#171,.T.);
#216=ORIENTED_EDGE('',*,*,#175,.T.);
#217=ORIENTED_EDGE('',*,*,#176,.T.);
#218=ORIENTED_EDGE('',*,*,#176,.F.);
#219=ORIENTED_EDGE('',*,*,#177,.T.);
#220=ORIENTED_EDGE('',*,*,#178,.T.);
#221=ORIENTED_EDGE('',*,*,#179,.T.);
#222=ORIENTED_EDGE('',*,*,#169,.T.);
#223=ORIENTED_EDGE('',*,*,#172,.T.);
#224=ORIENTED_EDGE('',*,*,#174,.T.);
#225=ORIENTED_EDGE('',*,*,#159,.F.);
#226=ORIENTED_EDGE('',*,*,#175,.F.);
#227=ORIENTED_EDGE('',*,*,#161,.T.);
#228=ORIENTED_EDGE('',*,*,#180,.F.);
#229=ORIENTED_EDGE('',*,*,#177,.F.);
#230=ORIENTED_EDGE('',*,*,#173,.T.);
#231=ORIENTED_EDGE('',*,*,#166,.T.);
#232=ORIENTED_EDGE('',*,*,#181,.F.);
#233=ORIENTED_EDGE('',*,*,#178,.F.);
#234=ORIENTED_EDGE('',*,*,#180,.T.);
#235=ORIENTED_EDGE('',*,*,#165,.T.);
#236=ORIENTED_EDGE('',*,*,#170,.F.);
#237=ORIENTED_EDGE('',*,*,#179,.F.);
#238=ORIENTED_EDGE('',*,*,#181,.T.);
#239=ORIENTED_EDGE('',*,*,#167,.T.);
#240=CONICAL_SURFACE('',#285,2.7,45.);
#241=CONICAL_SURFACE('',#300,2.7,60.0000000000001);
#242=CONICAL_SURFACE('',#301,5.47,45.);
#243=CONICAL_SURFACE('',#306,6.25,45.);
#244=STYLED_ITEM('',(#494),#264);
#245=STYLED_ITEM('',(#494),#265);
#246=STYLED_ITEM('',(#494),#266);
#247=STYLED_ITEM('',(#494),#267);
#248=STYLED_ITEM('',(#494),#268);
#249=STYLED_ITEM('',(#494),#269);
#250=STYLED_ITEM('',(#494),#270);
#251=STYLED_ITEM('',(#494),#271);
#252=STYLED_ITEM('',(#494),#272);
#253=STYLED_ITEM('',(#494),#273);
#254=STYLED_ITEM('',(#494),#274);
#255=STYLED_ITEM('',(#494),#275);
#256=STYLED_ITEM('',(#494),#276);
#257=STYLED_ITEM('',(#494),#277);
#258=STYLED_ITEM('',(#494),#278);
#259=STYLED_ITEM('',(#494),#279);
#260=STYLED_ITEM('',(#494),#280);
#261=STYLED_ITEM('',(#494),#281);
#262=STYLED_ITEM('',(#494),#282);
#263=STYLED_ITEM('',(#494),#13);
#264=ADVANCED_FACE('',(#70,#59),#240,.T.);
#265=ADVANCED_FACE('',(#71,#60),#56,.T.);
#266=ADVANCED_FACE('',(#72),#46,.T.);
#267=ADVANCED_FACE('',(#73,#61),#44,.F.);
#268=ADVANCED_FACE('',(#74,#62),#57,.T.);
#269=ADVANCED_FACE('',(#75,#63),#47,.F.);
#270=ADVANCED_FACE('',(#76,#64),#45,.F.);
#271=ADVANCED_FACE('',(#77,#65),#241,.T.);
#272=ADVANCED_FACE('',(#78,#66),#242,.T.);
#273=ADVANCED_FACE('',(#79),#48,.T.);
#274=ADVANCED_FACE('',(#80),#49,.T.);
#275=ADVANCED_FACE('',(#81),#50,.T.);
#276=ADVANCED_FACE('',(#82,#67),#243,.T.);
#277=ADVANCED_FACE('',(#83,#68),#51,.T.);
#278=ADVANCED_FACE('',(#84,#69),#58,.T.);
#279=ADVANCED_FACE('',(#85),#52,.T.);
#280=ADVANCED_FACE('',(#86),#53,.T.);
#281=ADVANCED_FACE('',(#87),#54,.T.);
#282=ADVANCED_FACE('',(#88),#55,.T.);
#283=CLOSED_SHELL('',(#264,#265,#266,#267,#268,#269,#270,#271,#272,#273,
#274,#275,#276,#277,#278,#279,#280,#281,#282));
#284=AXIS2_PLACEMENT_3D('placement',#389,#315,#316);
#285=AXIS2_PLACEMENT_3D('',#390,#317,#318);
#286=AXIS2_PLACEMENT_3D('',#392,#319,#320);
#287=AXIS2_PLACEMENT_3D('',#394,#321,#322);
#288=AXIS2_PLACEMENT_3D('',#395,#323,#324);
#289=AXIS2_PLACEMENT_3D('',#397,#325,#326);
#290=AXIS2_PLACEMENT_3D('',#398,#327,#328);
#291=AXIS2_PLACEMENT_3D('',#399,#329,#330);
#292=AXIS2_PLACEMENT_3D('',#401,#331,#332);
#293=AXIS2_PLACEMENT_3D('',#403,#333,#334);
#294=AXIS2_PLACEMENT_3D('',#404,#335,#336);
#295=AXIS2_PLACEMENT_3D('',#406,#337,#338);
#296=AXIS2_PLACEMENT_3D('',#407,#339,#340);
#297=AXIS2_PLACEMENT_3D('',#409,#341,#342);
#298=AXIS2_PLACEMENT_3D('',#410,#343,#344);
#299=AXIS2_PLACEMENT_3D('',#412,#345,#346);
#300=AXIS2_PLACEMENT_3D('',#413,#347,#348);
#301=AXIS2_PLACEMENT_3D('',#414,#349,#350);
#302=AXIS2_PLACEMENT_3D('',#440,#351,#352);
#303=AXIS2_PLACEMENT_3D('',#441,#353,#354);
#304=AXIS2_PLACEMENT_3D('',#447,#358,#359);
#305=AXIS2_PLACEMENT_3D('',#451,#362,#363);
#306=AXIS2_PLACEMENT_3D('',#455,#366,#367);
#307=AXIS2_PLACEMENT_3D('',#457,#368,#369);
#308=AXIS2_PLACEMENT_3D('',#459,#370,#371);
#309=AXIS2_PLACEMENT_3D('',#460,#372,#373);
#310=AXIS2_PLACEMENT_3D('',#466,#377,#378);
#311=AXIS2_PLACEMENT_3D('',#467,#379,#380);
#312=AXIS2_PLACEMENT_3D('',#469,#382,#383);
#313=AXIS2_PLACEMENT_3D('',#471,#385,#386);
#314=AXIS2_PLACEMENT_3D('',#472,#387,#388);
#315=DIRECTION('axis',(0.,0.,1.));
#316=DIRECTION('refdir',(1.,0.,0.));
#317=DIRECTION('center_axis',(-1.4350210011078E-17,-1.,-7.41791002448052E-16));
#318=DIRECTION('ref_axis',(-0.866025403784438,-3.6767351881904E-16,0.500000000000001));
#319=DIRECTION('center_axis',(1.4350210011078E-17,1.,7.41791002448052E-16));
#320=DIRECTION('ref_axis',(-0.866025403784438,-3.75038050030439E-16,0.500000000000001));
#321=DIRECTION('center_axis',(-1.4350210011078E-17,-1.,-7.41791002448052E-16));
#322=DIRECTION('ref_axis',(-0.866025403784438,-3.58467854804791E-16,0.500000000000001));
#323=DIRECTION('center_axis',(1.4350210011078E-17,1.,7.41791002448052E-16));
#324=DIRECTION('ref_axis',(0.866025403784438,3.75038050030439E-16,-0.500000000000001));
#325=DIRECTION('center_axis',(1.4350210011078E-17,1.,7.41791002448052E-16));
#326=DIRECTION('ref_axis',(-0.866025403784438,-3.58467854804791E-16,0.500000000000001));
#327=DIRECTION('center_axis',(1.4350210011078E-17,1.,7.41791002448052E-16));
#328=DIRECTION('ref_axis',(0.866025403784438,3.5527136788005E-16,-0.500000000000001));
#329=DIRECTION('center_axis',(1.97215226305253E-31,-1.,-7.50076100060875E-16));
#330=DIRECTION('ref_axis',(-0.866025403784438,-2.61228946970625E-16,0.500000000000001));
#331=DIRECTION('center_axis',(1.97215226305253E-31,-1.,-7.50076100060875E-16));
#332=DIRECTION('ref_axis',(-0.866025403784438,-3.75038050030439E-16,0.500000000000001));
#333=DIRECTION('center_axis',(-1.97215226305253E-31,1.,7.50076100060875E-16));
#334=DIRECTION('ref_axis',(-0.866025403784438,-3.75038050030439E-16,0.500000000000001));
#335=DIRECTION('center_axis',(1.4350210011078E-17,1.,7.41791002448052E-16));
#336=DIRECTION('ref_axis',(0.866025403784438,3.75038050030439E-16,-0.500000000000001));
#337=DIRECTION('center_axis',(1.4350210011078E-17,1.,7.41791002448052E-16));
#338=DIRECTION('ref_axis',(-0.866025403784438,-3.60582021063965E-16,0.500000000000001));
#339=DIRECTION('center_axis',(1.97215226305253E-31,-1.,-7.50076100060875E-16));
#340=DIRECTION('ref_axis',(-0.866025403784438,-3.5527136788005E-16,0.500000000000001));
#341=DIRECTION('center_axis',(-1.97215226305253E-31,1.,7.50076100060875E-16));
#342=DIRECTION('ref_axis',(-0.866025403784438,-3.75038050030439E-16,0.500000000000001));
#343=DIRECTION('center_axis',(1.4350210011078E-17,1.,7.41791002448052E-16));
#344=DIRECTION('ref_axis',(0.866025403784438,2.61228946970625E-16,-0.500000000000001));
#345=DIRECTION('center_axis',(1.97215226305253E-31,-1.,-7.50076100060875E-16));
#346=DIRECTION('ref_axis',(-0.866025403784438,-3.75038050030439E-16,0.500000000000001));
#347=DIRECTION('center_axis',(1.4350210011078E-17,1.,7.41791002448052E-16));
#348=DIRECTION('ref_axis',(0.866025403784438,3.75038050030439E-16,-0.500000000000001));
#349=DIRECTION('center_axis',(4.08550301978013E-17,1.,7.26488437378424E-16));
#350=DIRECTION('ref_axis',(-0.866025403784438,-3.75038050030439E-16,0.500000000000001));
#351=DIRECTION('center_axis',(1.97215226305253E-31,-1.,-7.50076100060875E-16));
#352=DIRECTION('ref_axis',(-0.866025403784438,-3.75038050030439E-16,0.500000000000001));
#353=DIRECTION('center_axis',(-1.33226762955019E-15,7.50076100060875E-16,
-1.));
#354=DIRECTION('ref_axis',(1.,0.,-1.33226762955019E-15));
#355=DIRECTION('',(1.97215226305253E-31,-1.,-7.50076100060875E-16));
#356=DIRECTION('',(-1.,-1.18329135783152E-30,1.33226762955019E-15));
#357=DIRECTION('',(1.97215226305253E-31,-1.,-7.50076100060875E-16));
#358=DIRECTION('center_axis',(-0.866025403784439,3.75038050030437E-16,-0.499999999999999));
#359=DIRECTION('ref_axis',(0.499999999999999,6.21724893790088E-16,-0.866025403784439));
#360=DIRECTION('',(1.97215226305253E-31,-1.,-7.50076100060875E-16));
#361=DIRECTION('',(-0.499999999999999,-6.49584957424277E-16,0.866025403784439));
#362=DIRECTION('center_axis',(-0.866025403784438,-3.75038050030439E-16,
0.500000000000002));
#363=DIRECTION('ref_axis',(-0.500000000000002,6.21724893790088E-16,-0.866025403784438));
#364=DIRECTION('',(1.97215226305253E-31,-1.,-7.50076100060875E-16));
#365=DIRECTION('',(0.500000000000002,-6.49584957424276E-16,0.866025403784438));
#366=DIRECTION('center_axis',(-1.97215226305253E-31,1.,7.50076100060875E-16));
#367=DIRECTION('ref_axis',(-0.866025403784438,-3.75038050030439E-16,0.500000000000001));
#368=DIRECTION('center_axis',(1.97215226305253E-31,-1.,-7.50076100060875E-16));
#369=DIRECTION('ref_axis',(-0.866025403784438,-3.75038050030439E-16,0.500000000000001));
#370=DIRECTION('center_axis',(-1.97215226305253E-31,1.,7.50076100060875E-16));
#371=DIRECTION('ref_axis',(-0.866025403784438,-3.75038050030439E-16,0.500000000000001));
#372=DIRECTION('center_axis',(1.97215226305253E-31,-1.,-7.50076100060875E-16));
#373=DIRECTION('ref_axis',(-0.866025403784438,-3.5527136788005E-16,0.500000000000001));
#374=DIRECTION('',(1.,1.67632942359465E-30,-1.94289029309402E-15));
#375=DIRECTION('',(0.499999999999999,6.49584957424277E-16,-0.866025403784439));
#376=DIRECTION('',(-0.500000000000001,6.49584957424276E-16,-0.866025403784438));
#377=DIRECTION('center_axis',(-1.97215226305253E-31,1.,7.50076100060875E-16));
#378=DIRECTION('ref_axis',(-0.866025403784438,-3.75038050030439E-16,0.500000000000001));
#379=DIRECTION('center_axis',(1.94289029309402E-15,-7.50076100060876E-16,
1.));
#380=DIRECTION('ref_axis',(-1.,0.,1.95399252334028E-15));
#381=DIRECTION('',(1.97215226305253E-31,-1.,-7.50076100060875E-16));
#382=DIRECTION('center_axis',(0.866025403784439,-3.75038050030437E-16,0.499999999999999));
#383=DIRECTION('ref_axis',(-0.499999999999999,-6.21724893790088E-16,0.866025403784439));
#384=DIRECTION('',(1.97215226305253E-31,-1.,-7.50076100060875E-16));
#385=DIRECTION('center_axis',(0.866025403784438,3.75038050030439E-16,-0.500000000000001));
#386=DIRECTION('ref_axis',(0.500000000000001,-6.21724893790088E-16,0.866025403784438));
#387=DIRECTION('center_axis',(1.97215226305253E-31,-1.,-7.50076100060875E-16));
#388=DIRECTION('ref_axis',(-0.866025403784438,-3.5527136788005E-16,0.500000000000001));
#389=CARTESIAN_POINT('',(0.,0.,0.));
#390=CARTESIAN_POINT('Origin',(-2.69189625235315E-6,9.44999999999998,2.98714588996818E-14));
#391=CARTESIAN_POINT('',(2.59807351945706,9.14999999999998,-1.49999999999997));
#392=CARTESIAN_POINT('Origin',(-2.69189625235745E-6,9.14999999999998,2.96489215989473E-14));
#393=CARTESIAN_POINT('',(2.0784582771864,9.74999999999998,-1.19999999999997));
#394=CARTESIAN_POINT('Origin',(-2.69189625234884E-6,9.74999999999998,3.00939962004162E-14));
#395=CARTESIAN_POINT('Origin',(-2.69189625243494E-6,3.74999999999998,2.56432501857279E-14));
#396=CARTESIAN_POINT('',(2.59807351945706,-2.25000000000002,-1.49999999999998));
#397=CARTESIAN_POINT('Origin',(-2.69189625252104E-6,-2.25000000000002,2.11925041710396E-14));
#398=CARTESIAN_POINT('Origin',(-2.6918962523309E-6,9.74999999999998,3.00836373353368E-14));
#399=CARTESIAN_POINT('Origin',(-2.69189625254257E-6,-3.75000000000002,2.00798176673675E-14));
#400=CARTESIAN_POINT('',(2.0784582771864,-3.75000000000002,-1.19999999999998));
#401=CARTESIAN_POINT('Origin',(-2.69189625254257E-6,-3.75000000000002,2.00798176673675E-14));
#402=CARTESIAN_POINT('',(2.51147097907862,-4.25000000000002,-1.44999999999998));
#403=CARTESIAN_POINT('Origin',(-2.69189625254257E-6,-4.25000000000002,1.9704779617337E-14));
#404=CARTESIAN_POINT('Origin',(-2.69189625253788E-6,-3.42320508075691,2.03222311981078E-14));
#405=CARTESIAN_POINT('',(2.0784582771864,-2.88508529610861,-1.19999999999998));
#406=CARTESIAN_POINT('Origin',(-2.69189625253016E-6,-2.88508529610861,2.07214036125991E-14));
#407=CARTESIAN_POINT('Origin',(-2.69189625262783E-6,-4.25000000000002,1.97540070605399E-14));
#408=CARTESIAN_POINT('',(5.54255989232415,-4.25000000000002,-3.19999999999999));
#409=CARTESIAN_POINT('Origin',(-2.69189625257127E-6,-4.25000000000002,1.97213498125627E-14));
#410=CARTESIAN_POINT('Origin',(-2.69189625253016E-6,-2.88508529610861,2.07214036125991E-14));
#411=CARTESIAN_POINT('',(2.29496462813251,-2.45207259421639,-1.32499999999998));
#412=CARTESIAN_POINT('Origin',(-2.69189625249014E-6,-2.45207259421639,2.12104584084165E-14));
#413=CARTESIAN_POINT('Origin',(-2.69189625252353E-6,-2.42320508075691,2.10640222005558E-14));
#414=CARTESIAN_POINT('Origin',(-2.69189624966231E-6,-9.15000000000002,1.43664897877172E-14));
#415=CARTESIAN_POINT('',(-2.88675403784437,-8.84649730810377,5.00000000000002));
#416=CARTESIAN_POINT('',(2.88674865405189,-8.84649730810377,5.00000000000001));
#417=CARTESIAN_POINT('Ctrl Pts',(-2.88675403784437,-8.84649730810377,5.00000000000002));
#418=CARTESIAN_POINT('Ctrl Pts',(-2.69189608381737E-6,-10.2898729810766,
5.00000000000002));
#419=CARTESIAN_POINT('Ctrl Pts',(2.88674865405189,-8.84649730810377,5.00000000000001));
#420=CARTESIAN_POINT('',(-5.77350538379251,-8.84649730810376,2.29349651855109E-14));
#421=CARTESIAN_POINT('Ctrl Pts',(-5.77350538379251,-8.84649730810376,2.29349651855109E-14));
#422=CARTESIAN_POINT('Ctrl Pts',(-4.33012971081836,-10.2898729810766,2.50000000000016));
#423=CARTESIAN_POINT('Ctrl Pts',(-2.88675403784437,-8.84649730810377,5.00000000000002));
#424=CARTESIAN_POINT('',(-2.88675403784439,-8.84649730810376,-4.99999999999998));
#425=CARTESIAN_POINT('Ctrl Pts',(-2.88675403784439,-8.84649730810376,-4.99999999999998));
#426=CARTESIAN_POINT('Ctrl Pts',(-4.33012971081853,-10.2898729810766,-2.49999999999985));
#427=CARTESIAN_POINT('Ctrl Pts',(-5.77350538379251,-8.84649730810376,2.29349651855109E-14));
#428=CARTESIAN_POINT('',(2.88674865405187,-8.84649730810376,-4.99999999999999));
#429=CARTESIAN_POINT('Ctrl Pts',(2.88674865405187,-8.84649730810376,-4.99999999999999));
#430=CARTESIAN_POINT('Ctrl Pts',(-2.69189641466383E-6,-10.2898729810766,
-4.99999999999998));
#431=CARTESIAN_POINT('Ctrl Pts',(-2.88675403784439,-8.84649730810376,-4.99999999999998));
#432=CARTESIAN_POINT('',(5.7735,-8.84649730810377,8.22451010922753E-15));
#433=CARTESIAN_POINT('Ctrl Pts',(5.7735,-8.84649730810377,8.22451010922753E-15));
#434=CARTESIAN_POINT('Ctrl Pts',(4.33012432702586,-10.2898729810766,-2.50000000000013));
#435=CARTESIAN_POINT('Ctrl Pts',(2.88674865405187,-8.84649730810376,-4.99999999999999));
#436=CARTESIAN_POINT('Ctrl Pts',(2.88674865405189,-8.84649730810377,5.00000000000001));
#437=CARTESIAN_POINT('Ctrl Pts',(4.33012432702603,-10.2898729810766,2.49999999999987));
#438=CARTESIAN_POINT('Ctrl Pts',(5.77350000000001,-8.84649730810377,8.22451010922753E-15));
#439=CARTESIAN_POINT('',(-4.21754640832646,-9.75000000000002,2.43500000000002));
#440=CARTESIAN_POINT('Origin',(-2.69189624968682E-6,-9.75000000000002,1.39305967252901E-14));
#441=CARTESIAN_POINT('Origin',(-2.88675403784439,-5.75000000000002,-4.99999999999998));
#442=CARTESIAN_POINT('',(-2.88675403784439,-5.75000000000002,-4.99999999999998));
#443=CARTESIAN_POINT('',(-2.88675403784439,-5.75000000000002,-4.99999999999998));
#444=CARTESIAN_POINT('',(2.88674865405187,-5.75000000000002,-4.99999999999999));
#445=CARTESIAN_POINT('',(2.88674865405187,-5.75000000000002,-4.99999999999999));
#446=CARTESIAN_POINT('',(2.88674865405187,-5.75000000000002,-4.99999999999999));
#447=CARTESIAN_POINT('Origin',(-5.77350538379251,-5.75000000000002,2.52575738102223E-14));
#448=CARTESIAN_POINT('',(-5.77350538379251,-5.75000000000002,2.52575738102223E-14));
#449=CARTESIAN_POINT('',(-5.77350538379251,-5.75000000000002,2.52575738102223E-14));
#450=CARTESIAN_POINT('',(-2.88675403784439,-5.75000000000002,-4.99999999999998));
#451=CARTESIAN_POINT('Origin',(-2.88675403784437,-5.75000000000003,5.00000000000002));
#452=CARTESIAN_POINT('',(-2.88675403784437,-5.75000000000003,5.00000000000002));
#453=CARTESIAN_POINT('',(-2.88675403784437,-5.75000000000003,5.00000000000002));
#454=CARTESIAN_POINT('',(-5.77350538379251,-5.75000000000002,2.52575738102223E-14));
#455=CARTESIAN_POINT('Origin',(-2.69189625257127E-6,-5.60000000000002,1.87087470774805E-14));
#456=CARTESIAN_POINT('',(5.54255989232415,-5.45000000000002,-3.19999999999999));
#457=CARTESIAN_POINT('Origin',(-2.69189625257127E-6,-5.45000000000002,1.88212584924896E-14));
#458=CARTESIAN_POINT('',(5.28275227118882,-5.75000000000002,-3.04999999999999));
#459=CARTESIAN_POINT('Origin',(-2.69189625257127E-6,-5.75000000000002,1.85962356624714E-14));
#460=CARTESIAN_POINT('Origin',(-2.69189625262783E-6,-5.75000000000002,1.86288929104486E-14));
#461=CARTESIAN_POINT('',(2.88674865405189,-5.75000000000003,5.00000000000001));
#462=CARTESIAN_POINT('',(-2.88675403784437,-5.75000000000003,5.00000000000002));
#463=CARTESIAN_POINT('',(5.7735,-5.75000000000002,1.0547118733939E-14));
#464=CARTESIAN_POINT('',(2.88674865405189,-5.75000000000003,5.00000000000001));
#465=CARTESIAN_POINT('',(5.7735,-5.75000000000002,1.0547118733939E-14));
#466=CARTESIAN_POINT('Origin',(-2.69189625257127E-6,-5.75000000000002,1.85962356624714E-14));
#467=CARTESIAN_POINT('Origin',(2.88674865405189,-5.75000000000003,5.00000000000001));
#468=CARTESIAN_POINT('',(2.88674865405189,-5.75000000000003,5.00000000000001));
#469=CARTESIAN_POINT('Origin',(5.77350000000001,-5.75000000000002,8.88178419700125E-15));
#470=CARTESIAN_POINT('',(5.7735,-5.75000000000002,1.0547118733939E-14));
#471=CARTESIAN_POINT('Origin',(2.88674865405187,-5.75000000000002,-4.99999999999999));
#472=CARTESIAN_POINT('Origin',(-2.69189625284882E-6,-9.75000000000002,1.5115190590632E-14));
#473=UNCERTAINTY_MEASURE_WITH_UNIT(LENGTH_MEASURE(0.01),#477,
'DISTANCE_ACCURACY_VALUE',
'Maximum model space distance between geometric entities at asserted c
onnectivities');
#474=UNCERTAINTY_MEASURE_WITH_UNIT(LENGTH_MEASURE(1.E-6),#477,
'DISTANCE_ACCURACY_VALUE',
'Maximum model space distance between geometric entities at asserted c
onnectivities');
#475=(
GEOMETRIC_REPRESENTATION_CONTEXT(3)
GLOBAL_UNCERTAINTY_ASSIGNED_CONTEXT((#473))
GLOBAL_UNIT_ASSIGNED_CONTEXT((#477,#480,#478))
REPRESENTATION_CONTEXT('','3D')
);
#476=(
GEOMETRIC_REPRESENTATION_CONTEXT(3)
GLOBAL_UNCERTAINTY_ASSIGNED_CONTEXT((#474))
GLOBAL_UNIT_ASSIGNED_CONTEXT((#477,#480,#478))
REPRESENTATION_CONTEXT('','3D')
);
#477=(
LENGTH_UNIT()
NAMED_UNIT(*)
SI_UNIT(.MILLI.,.METRE.)
);
#478=(
NAMED_UNIT(*)
SI_UNIT($,.STERADIAN.)
SOLID_ANGLE_UNIT()
);
#479=DIMENSIONAL_EXPONENTS(0.,0.,0.,0.,0.,0.,0.);
#480=(
CONVERSION_BASED_UNIT('degree',#482)
NAMED_UNIT(#479)
PLANE_ANGLE_UNIT()
);
#481=(
NAMED_UNIT(*)
PLANE_ANGLE_UNIT()
SI_UNIT($,.RADIAN.)
);
#482=PLANE_ANGLE_MEASURE_WITH_UNIT(PLANE_ANGLE_MEASURE(0.01745329252),#481);
#483=SHAPE_DEFINITION_REPRESENTATION(#484,#485);
#484=PRODUCT_DEFINITION_SHAPE('',$,#487);
#485=SHAPE_REPRESENTATION('',(#284),#475);
#486=PRODUCT_DEFINITION_CONTEXT('part definition',#491,'design');
#487=PRODUCT_DEFINITION('CAD_69156','CAD_69156',#488,#486);
#488=PRODUCT_DEFINITION_FORMATION('',$,#493);
#489=PRODUCT_RELATED_PRODUCT_CATEGORY('CAD_69156','CAD_69156',(#493));
#490=APPLICATION_PROTOCOL_DEFINITION('international standard',
'automotive_design',2009,#491);
#491=APPLICATION_CONTEXT(
'Core Data for Automotive Mechanical Design Process');
#492=PRODUCT_CONTEXT('part definition',#491,'mechanical');
#493=PRODUCT('CAD_69156','CAD_69156',$,(#492));
#494=PRESENTATION_STYLE_ASSIGNMENT((#495));
#495=SURFACE_STYLE_USAGE(.BOTH.,#496);
#496=SURFACE_SIDE_STYLE('',(#497));
#497=SURFACE_STYLE_FILL_AREA(#498);
#498=FILL_AREA_STYLE('',(#499));
#499=FILL_AREA_STYLE_COLOUR('',#500);
#500=COLOUR_RGB('',0.956862745098039,0.956862745098039,0.956862745098039);
ENDSEC;
END-ISO-10303-21;
