ISO-10303-21;
HEADER;
/* Generated by software containing ST-Developer
 * from STEP Tools, Inc. (www.steptools.com) 
 */

FILE_DESCRIPTION(
/* description */ ('Stahlwinkel 20x20, schwarz'),
/* implementation_level */ '2;1');

FILE_NAME(
/* name */ 
'T:\\Produktinformationen\\MT\\B45\\3D-Files B45\\Stahlwinkel\\4027000
05 Stahlwinkel 20x20 schwarz.stp',
/* time_stamp */ '2019-10-15T16:46:03+02:00',
/* author */ ('wheldmann'),
/* organization */ (''),
/* preprocessor_version */ 'ST-DEVELOPER v17.2',
/* originating_system */ 'Autodesk Inventor 2019',
/* authorisation */ '');

FILE_SCHEMA (('AUTOMOTIVE_DESIGN { 1 0 10303 214 3 1 1 }'));
ENDSEC;

DATA;
#10=MECHANICAL_DESIGN_GEOMETRIC_PRESENTATION_REPRESENTATION('',(#13),#443);
#11=SHAPE_REPRESENTATION_RELATIONSHIP('SRR','None',#450,#12);
#12=ADVANCED_BREP_SHAPE_REPRESENTATION('',(#14),#442);
#13=STYLED_ITEM('',(#459),#14);
#14=MANIFOLD_SOLID_BREP('Volumenk\X\F6rper2',#253);
#15=FACE_BOUND('',#46,.T.);
#16=FACE_BOUND('',#49,.T.);
#17=FACE_BOUND('',#52,.T.);
#18=FACE_BOUND('',#54,.T.);
#19=PLANE('',#289);
#20=PLANE('',#290);
#21=PLANE('',#291);
#22=PLANE('',#292);
#23=PLANE('',#293);
#24=PLANE('',#294);
#25=PLANE('',#295);
#26=PLANE('',#296);
#27=CYLINDRICAL_SURFACE('',#278,2.75);
#28=CYLINDRICAL_SURFACE('',#286,2.75);
#29=FACE_OUTER_BOUND('',#41,.T.);
#30=FACE_OUTER_BOUND('',#42,.T.);
#31=FACE_OUTER_BOUND('',#43,.T.);
#32=FACE_OUTER_BOUND('',#44,.T.);
#33=FACE_OUTER_BOUND('',#45,.T.);
#34=FACE_OUTER_BOUND('',#47,.T.);
#35=FACE_OUTER_BOUND('',#48,.T.);
#36=FACE_OUTER_BOUND('',#50,.T.);
#37=FACE_OUTER_BOUND('',#51,.T.);
#38=FACE_OUTER_BOUND('',#53,.T.);
#39=FACE_OUTER_BOUND('',#55,.T.);
#40=FACE_OUTER_BOUND('',#56,.T.);
#41=EDGE_LOOP('',(#171,#172,#173,#174,#175,#176));
#42=EDGE_LOOP('',(#177,#178,#179,#180,#181,#182));
#43=EDGE_LOOP('',(#183,#184,#185,#186,#187,#188));
#44=EDGE_LOOP('',(#189,#190,#191,#192,#193,#194));
#45=EDGE_LOOP('',(#195,#196,#197,#198));
#46=EDGE_LOOP('',(#199,#200));
#47=EDGE_LOOP('',(#201,#202,#203,#204));
#48=EDGE_LOOP('',(#205,#206,#207,#208));
#49=EDGE_LOOP('',(#209,#210));
#50=EDGE_LOOP('',(#211,#212,#213,#214));
#51=EDGE_LOOP('',(#215,#216,#217,#218));
#52=EDGE_LOOP('',(#219,#220));
#53=EDGE_LOOP('',(#221,#222,#223,#224));
#54=EDGE_LOOP('',(#225,#226));
#55=EDGE_LOOP('',(#227,#228,#229,#230,#231,#232));
#56=EDGE_LOOP('',(#233,#234,#235,#236,#237,#238));
#57=LINE('',#375,#79);
#58=LINE('',#385,#80);
#59=LINE('',#392,#81);
#60=LINE('',#400,#82);
#61=LINE('',#405,#83);
#62=LINE('',#407,#84);
#63=LINE('',#409,#85);
#64=LINE('',#410,#86);
#65=LINE('',#414,#87);
#66=LINE('',#416,#88);
#67=LINE('',#418,#89);
#68=LINE('',#419,#90);
#69=LINE('',#421,#91);
#70=LINE('',#422,#92);
#71=LINE('',#425,#93);
#72=LINE('',#427,#94);
#73=LINE('',#428,#95);
#74=LINE('',#431,#96);
#75=LINE('',#433,#97);
#76=LINE('',#434,#98);
#77=LINE('',#436,#99);
#78=LINE('',#437,#100);
#79=VECTOR('',#303,5.2);
#80=VECTOR('',#316,2.75);
#81=VECTOR('',#323,5.2);
#82=VECTOR('',#332,2.75);
#83=VECTOR('',#337,1000.);
#84=VECTOR('',#338,1000.);
#85=VECTOR('',#339,1000.);
#86=VECTOR('',#340,1000.);
#87=VECTOR('',#343,1000.);
#88=VECTOR('',#344,1000.);
#89=VECTOR('',#345,1000.);
#90=VECTOR('',#346,1000.);
#91=VECTOR('',#349,1000.);
#92=VECTOR('',#350,1000.);
#93=VECTOR('',#353,1000.);
#94=VECTOR('',#354,1000.);
#95=VECTOR('',#355,1000.);
#96=VECTOR('',#358,1000.);
#97=VECTOR('',#359,1000.);
#98=VECTOR('',#360,1000.);
#99=VECTOR('',#363,1000.);
#100=VECTOR('',#364,1000.);
#101=CIRCLE('',#274,2.75);
#102=CIRCLE('',#275,5.2);
#103=CIRCLE('',#276,5.2);
#104=CIRCLE('',#277,2.75);
#105=CIRCLE('',#279,2.75);
#106=CIRCLE('',#280,2.75);
#107=CIRCLE('',#282,2.75);
#108=CIRCLE('',#283,2.75);
#109=CIRCLE('',#284,5.2);
#110=CIRCLE('',#285,5.2);
#111=CIRCLE('',#287,2.75);
#112=CIRCLE('',#288,2.75);
#113=VERTEX_POINT('',#371);
#114=VERTEX_POINT('',#372);
#115=VERTEX_POINT('',#374);
#116=VERTEX_POINT('',#376);
#117=VERTEX_POINT('',#381);
#118=VERTEX_POINT('',#382);
#119=VERTEX_POINT('',#387);
#120=VERTEX_POINT('',#388);
#121=VERTEX_POINT('',#391);
#122=VERTEX_POINT('',#393);
#123=VERTEX_POINT('',#397);
#124=VERTEX_POINT('',#398);
#125=VERTEX_POINT('',#403);
#126=VERTEX_POINT('',#404);
#127=VERTEX_POINT('',#406);
#128=VERTEX_POINT('',#408);
#129=VERTEX_POINT('',#412);
#130=VERTEX_POINT('',#413);
#131=VERTEX_POINT('',#415);
#132=VERTEX_POINT('',#417);
#133=VERTEX_POINT('',#424);
#134=VERTEX_POINT('',#426);
#135=VERTEX_POINT('',#430);
#136=VERTEX_POINT('',#432);
#137=EDGE_CURVE('',#113,#114,#101,.T.);
#138=EDGE_CURVE('',#114,#115,#57,.T.);
#139=EDGE_CURVE('',#116,#115,#102,.T.);
#140=EDGE_CURVE('',#115,#116,#103,.T.);
#141=EDGE_CURVE('',#114,#113,#104,.T.);
#142=EDGE_CURVE('',#117,#118,#105,.T.);
#143=EDGE_CURVE('',#118,#117,#106,.T.);
#144=EDGE_CURVE('',#118,#114,#58,.T.);
#145=EDGE_CURVE('',#119,#120,#107,.T.);
#146=EDGE_CURVE('',#120,#119,#108,.T.);
#147=EDGE_CURVE('',#120,#121,#59,.T.);
#148=EDGE_CURVE('',#121,#122,#109,.T.);
#149=EDGE_CURVE('',#122,#121,#110,.T.);
#150=EDGE_CURVE('',#123,#124,#111,.T.);
#151=EDGE_CURVE('',#124,#120,#60,.T.);
#152=EDGE_CURVE('',#124,#123,#112,.T.);
#153=EDGE_CURVE('',#125,#126,#61,.T.);
#154=EDGE_CURVE('',#127,#126,#62,.T.);
#155=EDGE_CURVE('',#128,#127,#63,.T.);
#156=EDGE_CURVE('',#128,#125,#64,.T.);
#157=EDGE_CURVE('',#129,#130,#65,.T.);
#158=EDGE_CURVE('',#131,#130,#66,.T.);
#159=EDGE_CURVE('',#132,#131,#67,.T.);
#160=EDGE_CURVE('',#132,#129,#68,.T.);
#161=EDGE_CURVE('',#130,#125,#69,.T.);
#162=EDGE_CURVE('',#131,#128,#70,.T.);
#163=EDGE_CURVE('',#126,#133,#71,.T.);
#164=EDGE_CURVE('',#134,#133,#72,.T.);
#165=EDGE_CURVE('',#127,#134,#73,.T.);
#166=EDGE_CURVE('',#133,#135,#74,.T.);
#167=EDGE_CURVE('',#136,#135,#75,.T.);
#168=EDGE_CURVE('',#134,#136,#76,.T.);
#169=EDGE_CURVE('',#135,#129,#77,.T.);
#170=EDGE_CURVE('',#136,#132,#78,.T.);
#171=ORIENTED_EDGE('',*,*,#137,.T.);
#172=ORIENTED_EDGE('',*,*,#138,.T.);
#173=ORIENTED_EDGE('',*,*,#139,.F.);
#174=ORIENTED_EDGE('',*,*,#140,.F.);
#175=ORIENTED_EDGE('',*,*,#138,.F.);
#176=ORIENTED_EDGE('',*,*,#141,.T.);
#177=ORIENTED_EDGE('',*,*,#142,.F.);
#178=ORIENTED_EDGE('',*,*,#143,.F.);
#179=ORIENTED_EDGE('',*,*,#144,.T.);
#180=ORIENTED_EDGE('',*,*,#137,.F.);
#181=ORIENTED_EDGE('',*,*,#141,.F.);
#182=ORIENTED_EDGE('',*,*,#144,.F.);
#183=ORIENTED_EDGE('',*,*,#145,.F.);
#184=ORIENTED_EDGE('',*,*,#146,.F.);
#185=ORIENTED_EDGE('',*,*,#147,.T.);
#186=ORIENTED_EDGE('',*,*,#148,.T.);
#187=ORIENTED_EDGE('',*,*,#149,.T.);
#188=ORIENTED_EDGE('',*,*,#147,.F.);
#189=ORIENTED_EDGE('',*,*,#150,.T.);
#190=ORIENTED_EDGE('',*,*,#151,.T.);
#191=ORIENTED_EDGE('',*,*,#146,.T.);
#192=ORIENTED_EDGE('',*,*,#145,.T.);
#193=ORIENTED_EDGE('',*,*,#151,.F.);
#194=ORIENTED_EDGE('',*,*,#152,.T.);
#195=ORIENTED_EDGE('',*,*,#153,.T.);
#196=ORIENTED_EDGE('',*,*,#154,.F.);
#197=ORIENTED_EDGE('',*,*,#155,.F.);
#198=ORIENTED_EDGE('',*,*,#156,.T.);
#199=ORIENTED_EDGE('',*,*,#150,.F.);
#200=ORIENTED_EDGE('',*,*,#152,.F.);
#201=ORIENTED_EDGE('',*,*,#157,.T.);
#202=ORIENTED_EDGE('',*,*,#158,.F.);
#203=ORIENTED_EDGE('',*,*,#159,.F.);
#204=ORIENTED_EDGE('',*,*,#160,.T.);
#205=ORIENTED_EDGE('',*,*,#161,.T.);
#206=ORIENTED_EDGE('',*,*,#156,.F.);
#207=ORIENTED_EDGE('',*,*,#162,.F.);
#208=ORIENTED_EDGE('',*,*,#158,.T.);
#209=ORIENTED_EDGE('',*,*,#142,.T.);
#210=ORIENTED_EDGE('',*,*,#143,.T.);
#211=ORIENTED_EDGE('',*,*,#163,.T.);
#212=ORIENTED_EDGE('',*,*,#164,.F.);
#213=ORIENTED_EDGE('',*,*,#165,.F.);
#214=ORIENTED_EDGE('',*,*,#154,.T.);
#215=ORIENTED_EDGE('',*,*,#166,.T.);
#216=ORIENTED_EDGE('',*,*,#167,.F.);
#217=ORIENTED_EDGE('',*,*,#168,.F.);
#218=ORIENTED_EDGE('',*,*,#164,.T.);
#219=ORIENTED_EDGE('',*,*,#149,.F.);
#220=ORIENTED_EDGE('',*,*,#148,.F.);
#221=ORIENTED_EDGE('',*,*,#169,.T.);
#222=ORIENTED_EDGE('',*,*,#160,.F.);
#223=ORIENTED_EDGE('',*,*,#170,.F.);
#224=ORIENTED_EDGE('',*,*,#167,.T.);
#225=ORIENTED_EDGE('',*,*,#139,.T.);
#226=ORIENTED_EDGE('',*,*,#140,.T.);
#227=ORIENTED_EDGE('',*,*,#159,.T.);
#228=ORIENTED_EDGE('',*,*,#162,.T.);
#229=ORIENTED_EDGE('',*,*,#155,.T.);
#230=ORIENTED_EDGE('',*,*,#165,.T.);
#231=ORIENTED_EDGE('',*,*,#168,.T.);
#232=ORIENTED_EDGE('',*,*,#170,.T.);
#233=ORIENTED_EDGE('',*,*,#157,.F.);
#234=ORIENTED_EDGE('',*,*,#169,.F.);
#235=ORIENTED_EDGE('',*,*,#166,.F.);
#236=ORIENTED_EDGE('',*,*,#163,.F.);
#237=ORIENTED_EDGE('',*,*,#153,.F.);
#238=ORIENTED_EDGE('',*,*,#161,.F.);
#239=CONICAL_SURFACE('',#273,5.2,0.785398163397448);
#240=CONICAL_SURFACE('',#281,5.2,0.785398163397448);
#241=ADVANCED_FACE('',(#29),#239,.F.);
#242=ADVANCED_FACE('',(#30),#27,.F.);
#243=ADVANCED_FACE('',(#31),#240,.F.);
#244=ADVANCED_FACE('',(#32),#28,.F.);
#245=ADVANCED_FACE('',(#33,#15),#19,.F.);
#246=ADVANCED_FACE('',(#34),#20,.F.);
#247=ADVANCED_FACE('',(#35,#16),#21,.F.);
#248=ADVANCED_FACE('',(#36),#22,.F.);
#249=ADVANCED_FACE('',(#37,#17),#23,.F.);
#250=ADVANCED_FACE('',(#38,#18),#24,.F.);
#251=ADVANCED_FACE('',(#39),#25,.F.);
#252=ADVANCED_FACE('',(#40),#26,.T.);
#253=CLOSED_SHELL('',(#241,#242,#243,#244,#245,#246,#247,#248,#249,#250,
#251,#252));
#254=DERIVED_UNIT_ELEMENT(#256,1.);
#255=DERIVED_UNIT_ELEMENT(#445,3.);
#256=(
MASS_UNIT()
NAMED_UNIT(*)
SI_UNIT($,.GRAM.)
);
#257=DERIVED_UNIT((#254,#255));
#258=MEASURE_REPRESENTATION_ITEM('density measure',
POSITIVE_RATIO_MEASURE(7.85),#257);
#259=PROPERTY_DEFINITION_REPRESENTATION(#264,#261);
#260=PROPERTY_DEFINITION_REPRESENTATION(#265,#262);
#261=REPRESENTATION('material name',(#263),#442);
#262=REPRESENTATION('density',(#258),#442);
#263=DESCRIPTIVE_REPRESENTATION_ITEM('Stahl','Stahl');
#264=PROPERTY_DEFINITION('material property','material name',#452);
#265=PROPERTY_DEFINITION('material property','density of part',#452);
#266=DATE_TIME_ROLE('creation_date');
#267=APPLIED_DATE_AND_TIME_ASSIGNMENT(#268,#266,(#452));
#268=DATE_AND_TIME(#269,#270);
#269=CALENDAR_DATE(2019,15,10);
#270=LOCAL_TIME(16,11,47.,#271);
#271=COORDINATED_UNIVERSAL_TIME_OFFSET(0,0,.BEHIND.);
#272=AXIS2_PLACEMENT_3D('placement',#369,#297,#298);
#273=AXIS2_PLACEMENT_3D('',#370,#299,#300);
#274=AXIS2_PLACEMENT_3D('',#373,#301,#302);
#275=AXIS2_PLACEMENT_3D('',#377,#304,#305);
#276=AXIS2_PLACEMENT_3D('',#378,#306,#307);
#277=AXIS2_PLACEMENT_3D('',#379,#308,#309);
#278=AXIS2_PLACEMENT_3D('',#380,#310,#311);
#279=AXIS2_PLACEMENT_3D('',#383,#312,#313);
#280=AXIS2_PLACEMENT_3D('',#384,#314,#315);
#281=AXIS2_PLACEMENT_3D('',#386,#317,#318);
#282=AXIS2_PLACEMENT_3D('',#389,#319,#320);
#283=AXIS2_PLACEMENT_3D('',#390,#321,#322);
#284=AXIS2_PLACEMENT_3D('',#394,#324,#325);
#285=AXIS2_PLACEMENT_3D('',#395,#326,#327);
#286=AXIS2_PLACEMENT_3D('',#396,#328,#329);
#287=AXIS2_PLACEMENT_3D('',#399,#330,#331);
#288=AXIS2_PLACEMENT_3D('',#401,#333,#334);
#289=AXIS2_PLACEMENT_3D('',#402,#335,#336);
#290=AXIS2_PLACEMENT_3D('',#411,#341,#342);
#291=AXIS2_PLACEMENT_3D('',#420,#347,#348);
#292=AXIS2_PLACEMENT_3D('',#423,#351,#352);
#293=AXIS2_PLACEMENT_3D('',#429,#356,#357);
#294=AXIS2_PLACEMENT_3D('',#435,#361,#362);
#295=AXIS2_PLACEMENT_3D('',#438,#365,#366);
#296=AXIS2_PLACEMENT_3D('',#439,#367,#368);
#297=DIRECTION('axis',(0.,0.,1.));
#298=DIRECTION('refdir',(1.,0.,0.));
#299=DIRECTION('center_axis',(-2.22044604925031E-16,-1.,2.22044604925031E-16));
#300=DIRECTION('ref_axis',(-1.,2.22044604925031E-16,-2.22044604925031E-16));
#301=DIRECTION('center_axis',(2.22044604925031E-16,1.,-2.22044604925031E-16));
#302=DIRECTION('ref_axis',(-1.,2.22044604925031E-16,-2.22044604925031E-16));
#303=DIRECTION('',(0.707106781186547,-0.707106781186548,4.00614097360304E-16));
#304=DIRECTION('center_axis',(2.22044604925031E-16,1.,-2.22044604925031E-16));
#305=DIRECTION('ref_axis',(-1.,2.22044604925031E-16,-2.22044604925031E-16));
#306=DIRECTION('center_axis',(2.22044604925031E-16,1.,-2.22044604925031E-16));
#307=DIRECTION('ref_axis',(-1.,2.22044604925031E-16,-2.22044604925031E-16));
#308=DIRECTION('center_axis',(2.22044604925031E-16,1.,-2.22044604925031E-16));
#309=DIRECTION('ref_axis',(-1.,2.22044604925031E-16,-2.22044604925031E-16));
#310=DIRECTION('center_axis',(-2.22044604925031E-16,-1.,2.22044604925031E-16));
#311=DIRECTION('ref_axis',(-1.,2.22044604925031E-16,-2.22044604925031E-16));
#312=DIRECTION('center_axis',(-2.22044604925031E-16,-1.,2.22044604925031E-16));
#313=DIRECTION('ref_axis',(-1.,2.22044604925031E-16,-2.22044604925031E-16));
#314=DIRECTION('center_axis',(-2.22044604925031E-16,-1.,2.22044604925031E-16));
#315=DIRECTION('ref_axis',(-1.,2.22044604925031E-16,-2.22044604925031E-16));
#316=DIRECTION('',(-2.22044604925031E-16,-1.,2.22044604925031E-16));
#317=DIRECTION('center_axis',(-2.22044604925031E-16,4.93038065763132E-32,
1.));
#318=DIRECTION('ref_axis',(-1.,2.22044604925031E-16,-2.22044604925031E-16));
#319=DIRECTION('center_axis',(-2.22044604925031E-16,4.93038065763132E-32,
1.));
#320=DIRECTION('ref_axis',(-1.,2.22044604925031E-16,-2.22044604925031E-16));
#321=DIRECTION('center_axis',(-2.22044604925031E-16,4.93038065763132E-32,
1.));
#322=DIRECTION('ref_axis',(-1.,2.22044604925031E-16,-2.22044604925031E-16));
#323=DIRECTION('',(0.707106781186547,-7.04136402448279E-17,0.707106781186548));
#324=DIRECTION('center_axis',(-2.22044604925031E-16,4.93038065763132E-32,
1.));
#325=DIRECTION('ref_axis',(-1.,2.22044604925031E-16,-2.22044604925031E-16));
#326=DIRECTION('center_axis',(-2.22044604925031E-16,4.93038065763132E-32,
1.));
#327=DIRECTION('ref_axis',(-1.,2.22044604925031E-16,-2.22044604925031E-16));
#328=DIRECTION('center_axis',(-2.22044604925031E-16,4.93038065763132E-32,
1.));
#329=DIRECTION('ref_axis',(-1.,2.22044604925031E-16,-2.22044604925031E-16));
#330=DIRECTION('center_axis',(2.22044604925031E-16,-4.93038065763132E-32,
-1.));
#331=DIRECTION('ref_axis',(-1.,2.22044604925031E-16,-2.22044604925031E-16));
#332=DIRECTION('',(-2.22044604925031E-16,4.93038065763132E-32,1.));
#333=DIRECTION('center_axis',(2.22044604925031E-16,-4.93038065763132E-32,
-1.));
#334=DIRECTION('ref_axis',(-1.,2.22044604925031E-16,-2.22044604925031E-16));
#335=DIRECTION('center_axis',(-2.22044604925031E-16,4.93038065763132E-32,
1.));
#336=DIRECTION('ref_axis',(-1.,2.22044604925031E-16,-2.22044604925031E-16));
#337=DIRECTION('',(-2.22044604925031E-16,-1.,0.));
#338=DIRECTION('',(1.,-2.22044604925031E-16,2.22044604925031E-16));
#339=DIRECTION('',(-2.22044604925031E-16,-1.,0.));
#340=DIRECTION('',(1.,-2.22044604925031E-16,2.22044604925031E-16));
#341=DIRECTION('center_axis',(2.22044604925031E-16,-4.93038065763132E-32,
-1.));
#342=DIRECTION('ref_axis',(1.,-2.22044604925031E-16,2.22044604925031E-16));
#343=DIRECTION('',(2.22044604925031E-16,1.,0.));
#344=DIRECTION('',(1.,-2.22044604925031E-16,2.22044604925031E-16));
#345=DIRECTION('',(2.22044604925031E-16,1.,0.));
#346=DIRECTION('',(1.,-2.22044604925031E-16,2.22044604925031E-16));
#347=DIRECTION('center_axis',(-2.22044604925031E-16,-1.,0.));
#348=DIRECTION('ref_axis',(1.,-2.22044604925031E-16,2.22044604925031E-16));
#349=DIRECTION('',(2.22044604925031E-16,-4.93038065763132E-32,-1.));
#350=DIRECTION('',(2.22044604925031E-16,-4.93038065763132E-32,-1.));
#351=DIRECTION('center_axis',(2.22044604925031E-16,1.,0.));
#352=DIRECTION('ref_axis',(-1.,2.22044604925031E-16,-2.22044604925031E-16));
#353=DIRECTION('',(-2.22044604925031E-16,4.93038065763132E-32,1.));
#354=DIRECTION('',(1.,-2.22044604925031E-16,2.22044604925031E-16));
#355=DIRECTION('',(-2.22044604925031E-16,4.93038065763132E-32,1.));
#356=DIRECTION('center_axis',(2.22044604925031E-16,-4.93038065763132E-32,
-1.));
#357=DIRECTION('ref_axis',(1.,-2.22044604925031E-16,2.22044604925031E-16));
#358=DIRECTION('',(2.22044604925031E-16,1.,0.));
#359=DIRECTION('',(1.,-2.22044604925031E-16,2.22044604925031E-16));
#360=DIRECTION('',(2.22044604925031E-16,1.,0.));
#361=DIRECTION('center_axis',(2.22044604925031E-16,1.,-1.2984457155515E-16));
#362=DIRECTION('ref_axis',(2.22044604925031E-16,-1.2984457155515E-16,-1.));
#363=DIRECTION('',(-2.22044604925031E-16,1.2984457155515E-16,1.));
#364=DIRECTION('',(-2.22044604925031E-16,1.2984457155515E-16,1.));
#365=DIRECTION('center_axis',(1.,-2.22044604925031E-16,2.22044604925031E-16));
#366=DIRECTION('ref_axis',(2.22044604925031E-16,1.,0.));
#367=DIRECTION('center_axis',(1.,-2.22044604925031E-16,2.22044604925031E-16));
#368=DIRECTION('ref_axis',(2.22044604925031E-16,1.,0.));
#369=CARTESIAN_POINT('',(0.,0.,0.));
#370=CARTESIAN_POINT('Origin',(-2.95319324550292E-15,-3.,10.));
#371=CARTESIAN_POINT('',(-2.75,-0.549999999999995,10.));
#372=CARTESIAN_POINT('',(2.75,-0.549999999999997,10.));
#373=CARTESIAN_POINT('Origin',(-2.40918396343659E-15,-0.549999999999995,
10.));
#374=CARTESIAN_POINT('',(5.2,-3.,10.));
#375=CARTESIAN_POINT('',(5.2,-3.,10.));
#376=CARTESIAN_POINT('',(-5.2,-3.,10.));
#377=CARTESIAN_POINT('Origin',(-2.95319324550292E-15,-3.,10.));
#378=CARTESIAN_POINT('Origin',(-2.95319324550292E-15,-3.,10.));
#379=CARTESIAN_POINT('Origin',(-2.40918396343659E-15,-0.549999999999995,
10.));
#380=CARTESIAN_POINT('Origin',(-2.95319324550292E-15,-3.3,10.));
#381=CARTESIAN_POINT('',(-2.75,2.83106871279415E-15,10.));
#382=CARTESIAN_POINT('',(2.75,1.66533453693773E-15,10.));
#383=CARTESIAN_POINT('Origin',(-2.22044604925031E-15,2.22044604925031E-15,
10.));
#384=CARTESIAN_POINT('Origin',(-2.22044604925031E-15,2.22044604925031E-15,
10.));
#385=CARTESIAN_POINT('',(2.75,-3.3,10.));
#386=CARTESIAN_POINT('Origin',(-2.95319324550292E-15,-10.,3.));
#387=CARTESIAN_POINT('',(-2.75,-10.,0.549999999999997));
#388=CARTESIAN_POINT('',(2.75,-10.,0.549999999999998));
#389=CARTESIAN_POINT('Origin',(-2.40918396343659E-15,-10.,0.549999999999997));
#390=CARTESIAN_POINT('Origin',(-2.40918396343659E-15,-10.,0.549999999999997));
#391=CARTESIAN_POINT('',(5.2,-10.,3.));
#392=CARTESIAN_POINT('',(5.2,-10.,3.));
#393=CARTESIAN_POINT('',(-5.2,-10.,3.));
#394=CARTESIAN_POINT('Origin',(-2.95319324550292E-15,-10.,3.));
#395=CARTESIAN_POINT('Origin',(-2.95319324550292E-15,-10.,3.));
#396=CARTESIAN_POINT('Origin',(-2.95319324550292E-15,-10.,3.3));
#397=CARTESIAN_POINT('',(-2.75,-10.,-6.10622663543836E-16));
#398=CARTESIAN_POINT('',(2.75,-10.,5.55111512312578E-16));
#399=CARTESIAN_POINT('Origin',(-2.22044604925031E-15,-10.,0.));
#400=CARTESIAN_POINT('',(2.75,-10.,3.3));
#401=CARTESIAN_POINT('Origin',(-2.22044604925031E-15,-10.,0.));
#402=CARTESIAN_POINT('Origin',(-10.,2.22044604925031E-15,-2.22044604925031E-15));
#403=CARTESIAN_POINT('',(10.,-2.22044604925031E-15,2.22044604925031E-15));
#404=CARTESIAN_POINT('',(10.,-20.,2.22044604925031E-15));
#405=CARTESIAN_POINT('',(10.,-2.22044604925031E-15,2.22044604925031E-15));
#406=CARTESIAN_POINT('',(-10.,-20.,-2.22044604925031E-15));
#407=CARTESIAN_POINT('',(-10.,-20.,-2.22044604925031E-15));
#408=CARTESIAN_POINT('',(-10.,2.22044604925031E-15,-2.22044604925031E-15));
#409=CARTESIAN_POINT('',(-10.,2.22044604925031E-15,-2.22044604925031E-15));
#410=CARTESIAN_POINT('',(-10.,2.22044604925031E-15,-2.22044604925031E-15));
#411=CARTESIAN_POINT('Origin',(-10.,2.22044604925031E-15,20.));
#412=CARTESIAN_POINT('',(9.99999999999999,-3.,20.));
#413=CARTESIAN_POINT('',(10.,-2.22044604925031E-15,20.));
#414=CARTESIAN_POINT('',(10.,-2.22044604925031E-15,20.));
#415=CARTESIAN_POINT('',(-10.,2.22044604925031E-15,20.));
#416=CARTESIAN_POINT('',(-10.,2.22044604925031E-15,20.));
#417=CARTESIAN_POINT('',(-10.,-3.,20.));
#418=CARTESIAN_POINT('',(-10.,2.22044604925031E-15,20.));
#419=CARTESIAN_POINT('',(-10.,-3.,20.));
#420=CARTESIAN_POINT('Origin',(-10.,2.22044604925031E-15,20.));
#421=CARTESIAN_POINT('',(10.,-2.22044604925031E-15,20.));
#422=CARTESIAN_POINT('',(-10.,2.22044604925031E-15,20.));
#423=CARTESIAN_POINT('Origin',(-10.,-20.,3.3));
#424=CARTESIAN_POINT('',(9.99999999999999,-20.,3.));
#425=CARTESIAN_POINT('',(9.99999999999999,-20.,3.3));
#426=CARTESIAN_POINT('',(-10.,-20.,3.));
#427=CARTESIAN_POINT('',(-10.,-20.,3.));
#428=CARTESIAN_POINT('',(-10.,-20.,3.3));
#429=CARTESIAN_POINT('Origin',(-10.,-3.3,3.));
#430=CARTESIAN_POINT('',(10.,-3.,3.));
#431=CARTESIAN_POINT('',(10.,-3.3,3.));
#432=CARTESIAN_POINT('',(-10.,-3.,3.));
#433=CARTESIAN_POINT('',(-10.,-3.,3.));
#434=CARTESIAN_POINT('',(-10.,-3.3,3.));
#435=CARTESIAN_POINT('Origin',(-10.,-3.,20.));
#436=CARTESIAN_POINT('',(9.99999999999999,-3.,20.));
#437=CARTESIAN_POINT('',(-10.,-3.,20.));
#438=CARTESIAN_POINT('Origin',(-10.,2.22044604925031E-15,-2.22044604925031E-15));
#439=CARTESIAN_POINT('Origin',(10.,-2.22044604925031E-15,2.22044604925031E-15));
#440=UNCERTAINTY_MEASURE_WITH_UNIT(LENGTH_MEASURE(0.01),#444,
'DISTANCE_ACCURACY_VALUE',
'Maximum model space distance between geometric entities at asserted c
onnectivities');
#441=UNCERTAINTY_MEASURE_WITH_UNIT(LENGTH_MEASURE(0.01),#444,
'DISTANCE_ACCURACY_VALUE',
'Maximum model space distance between geometric entities at asserted c
onnectivities');
#442=(
GEOMETRIC_REPRESENTATION_CONTEXT(3)
GLOBAL_UNCERTAINTY_ASSIGNED_CONTEXT((#440))
GLOBAL_UNIT_ASSIGNED_CONTEXT((#444,#446,#447))
REPRESENTATION_CONTEXT('','3D')
);
#443=(
GEOMETRIC_REPRESENTATION_CONTEXT(3)
GLOBAL_UNCERTAINTY_ASSIGNED_CONTEXT((#441))
GLOBAL_UNIT_ASSIGNED_CONTEXT((#444,#446,#447))
REPRESENTATION_CONTEXT('','3D')
);
#444=(
LENGTH_UNIT()
NAMED_UNIT(*)
SI_UNIT(.MILLI.,.METRE.)
);
#445=(
LENGTH_UNIT()
NAMED_UNIT(*)
SI_UNIT(.CENTI.,.METRE.)
);
#446=(
NAMED_UNIT(*)
PLANE_ANGLE_UNIT()
SI_UNIT($,.RADIAN.)
);
#447=(
NAMED_UNIT(*)
SI_UNIT($,.STERADIAN.)
SOLID_ANGLE_UNIT()
);
#448=SHAPE_DEFINITION_REPRESENTATION(#449,#450);
#449=PRODUCT_DEFINITION_SHAPE('',$,#452);
#450=SHAPE_REPRESENTATION('',(#272),#442);
#451=PRODUCT_DEFINITION_CONTEXT('part definition',#456,'design');
#452=PRODUCT_DEFINITION('402700005',
'402700005 Stahlwinkel 20x20 schwarz',#453,#451);
#453=PRODUCT_DEFINITION_FORMATION('',$,#458);
#454=PRODUCT_RELATED_PRODUCT_CATEGORY(
'402700005 Stahlwinkel 20x20 schwarz',
'402700005 Stahlwinkel 20x20 schwarz',(#458));
#455=APPLICATION_PROTOCOL_DEFINITION('international standard',
'automotive_design',2009,#456);
#456=APPLICATION_CONTEXT(
'Core Data for Automotive Mechanical Design Process');
#457=PRODUCT_CONTEXT('part definition',#456,'mechanical');
#458=PRODUCT('402700005','402700005 Stahlwinkel 20x20 schwarz',
'Stahlwinkel 20x20, schwarz',(#457));
#459=PRESENTATION_STYLE_ASSIGNMENT((#460));
#460=SURFACE_STYLE_USAGE(.BOTH.,#463);
#461=SURFACE_STYLE_RENDERING_WITH_PROPERTIES($,#467,(#462));
#462=SURFACE_STYLE_TRANSPARENT(1.);
#463=SURFACE_SIDE_STYLE('',(#464,#461));
#464=SURFACE_STYLE_FILL_AREA(#465);
#465=FILL_AREA_STYLE('',(#466));
#466=FILL_AREA_STYLE_COLOUR('',#467);
#467=COLOUR_RGB('',0.,0.,0.);
ENDSEC;
END-ISO-10303-21;
