ISO-10303-21;
HEADER;
/****************************************************************
 * Generated by software with PDElib inside                    *
 * PDElib Version v51a, created Wed 07/06/2011                  *
 * ITI Transcendata (http://www.transcendata.com/)              *
 ****************************************************************/
FILE_DESCRIPTION((''),'2;1');
FILE_NAME('U:\\Paletti Norm\\Paletti Artikel\\SZ\\SZ1900S_A.stp','2013-08-29T13:40:11',('janine behrens'),(''),'Autodesk Inventor 2012','Autodesk Inventor 2012','');
FILE_SCHEMA(('AUTOMOTIVE_DESIGN { 1 0 10303 214 1 1 1 1 }'));
ENDSEC;
DATA;
#5=APPLICATION_CONTEXT('automotive design');
#6=APPLICATION_PROTOCOL_DEFINITION('International Standard','automotive_design',2001,#5);
#7=PRODUCT_CONTEXT('',#5,'mechanical');
#8=PRODUCT('SZ1900S_A','SZ1900S_A',$,(#7));
#9=PRODUCT_RELATED_PRODUCT_CATEGORY('part',$,(#8));
#10=PRODUCT_DEFINITION_FORMATION('',$,#8);
#11=PRODUCT_DEFINITION_CONTEXT('part definition',#5,'design');
#12=PRODUCT_DEFINITION('',$,#10,#11);
#18=(NAMED_UNIT(*)PLANE_ANGLE_UNIT()SI_UNIT($,.RADIAN.));
#19=DIMENSIONAL_EXPONENTS(0.0,0.0,0.0,0.0,0.0,0.0,0.0);
#20=PLANE_ANGLE_MEASURE_WITH_UNIT(PLANE_ANGLE_MEASURE(0.0174532925),#18);
#24=(CONVERSION_BASED_UNIT('DEGREE',#20)NAMED_UNIT(#19)PLANE_ANGLE_UNIT());
#28=(NAMED_UNIT(*)SI_UNIT($,.STERADIAN.)SOLID_ANGLE_UNIT());
#32=(LENGTH_UNIT()NAMED_UNIT(*)SI_UNIT(.MILLI.,.METRE.));
#34=UNCERTAINTY_MEASURE_WITH_UNIT(LENGTH_MEASURE(0.01),#32,'DISTANCE_ACCURACY_VALUE','');
#36=(GEOMETRIC_REPRESENTATION_CONTEXT(3)GLOBAL_UNCERTAINTY_ASSIGNED_CONTEXT((#34))GLOBAL_UNIT_ASSIGNED_CONTEXT((#24,#28,#32))REPRESENTATION_CONTEXT('None','None'));
#37=AXIS2_PLACEMENT_3D('',#38,#39,#40);
#38=CARTESIAN_POINT('',(0.0,0.0,0.0));
#39=DIRECTION('',(0.0,0.0,1.0));
#40=DIRECTION('',(1.0,0.0,0.0));
#41=SHAPE_REPRESENTATION('',(#37),#36);
#42=PRODUCT_DEFINITION_SHAPE('','',#12);
#43=SHAPE_DEFINITION_REPRESENTATION(#42,#41);
#49=(NAMED_UNIT(*)PLANE_ANGLE_UNIT()SI_UNIT($,.RADIAN.));
#50=DIMENSIONAL_EXPONENTS(0.0,0.0,0.0,0.0,0.0,0.0,0.0);
#51=PLANE_ANGLE_MEASURE_WITH_UNIT(PLANE_ANGLE_MEASURE(0.0174532925),#49);
#55=(CONVERSION_BASED_UNIT('DEGREE',#51)NAMED_UNIT(#50)PLANE_ANGLE_UNIT());
#59=(NAMED_UNIT(*)SI_UNIT($,.STERADIAN.)SOLID_ANGLE_UNIT());
#63=(LENGTH_UNIT()NAMED_UNIT(*)SI_UNIT(.MILLI.,.METRE.));
#65=UNCERTAINTY_MEASURE_WITH_UNIT(LENGTH_MEASURE(0.000001),#63,'DISTANCE_ACCURACY_VALUE','');
#67=(GEOMETRIC_REPRESENTATION_CONTEXT(3)GLOBAL_UNCERTAINTY_ASSIGNED_CONTEXT((#65))GLOBAL_UNIT_ASSIGNED_CONTEXT((#55,#59,#63))REPRESENTATION_CONTEXT('','3D'));
#68=CARTESIAN_POINT('',(-1.689807762622065,99.999999999999972,-0.906994047876984));
#69=DIRECTION('',(0.0,1.0,0.0));
#70=DIRECTION('',(0.0,0.0,1.0));
#71=AXIS2_PLACEMENT_3D('',#68,#69,#70);
#72=PLANE('',#71);
#73=CARTESIAN_POINT('',(2.431132715771405,99.999999999999972,-1.724508718506144));
#74=VERTEX_POINT('',#73);
#75=CARTESIAN_POINT('',(-2.0257666474863,99.999999999999972,5.995067422877618));
#76=VERTEX_POINT('',#75);
#77=CARTESIAN_POINT('',(2.431132715771405,99.999999999999972,-1.724508718506144));
#78=DIRECTION('',(-0.499999999999998,0.0,0.86602540378444));
#79=VECTOR('',#78,8.913798726515442);
#80=LINE('',#77,#79);
#81=EDGE_CURVE('',#74,#76,#80,.T.);
#82=ORIENTED_EDGE('',*,*,#81,.F.);
#83=CARTESIAN_POINT('',(1.748120013879202,99.999999999999972,-2.407521420398364));
#84=VERTEX_POINT('',#83);
#85=CARTESIAN_POINT('',(1.998120013879188,99.999999999999972,-1.974508718506165));
#86=DIRECTION('',(0.0,-1.0,0.0));
#87=DIRECTION('',(-0.499999999999996,0.0,-0.866025403784441));
#88=AXIS2_PLACEMENT_3D('',#85,#86,#87);
#89=CIRCLE('',#88,0.499999999999975);
#90=EDGE_CURVE('',#84,#74,#89,.T.);
#91=ORIENTED_EDGE('',*,*,#90,.F.);
#92=CARTESIAN_POINT('',(0.308207948729269,99.999999999999972,-1.576187801974669));
#93=VERTEX_POINT('',#92);
#94=CARTESIAN_POINT('',(0.308207948729269,99.999999999999972,-1.576187801974669));
#95=DIRECTION('',(0.866025403784441,0.0,-0.499999999999996));
#96=VECTOR('',#95,1.662667236847403);
#97=LINE('',#94,#96);
#98=EDGE_CURVE('',#93,#84,#97,.T.);
#99=ORIENTED_EDGE('',*,*,#98,.F.);
#100=CARTESIAN_POINT('',(-1.191792051270753,99.999999999999972,-2.442213205759103));
#101=VERTEX_POINT('',#100);
#102=CARTESIAN_POINT('',(-0.191792051270738,99.999999999999972,-2.442213205759138));
#103=DIRECTION('',(0.0,1.0,0.0));
#104=DIRECTION('',(-0.499999999999992,0.0,-0.866025403784443));
#105=AXIS2_PLACEMENT_3D('',#102,#103,#104);
#106=CIRCLE('',#105,1.00000000000003);
#107=EDGE_CURVE('',#101,#93,#106,.T.);
#108=ORIENTED_EDGE('',*,*,#107,.F.);
#109=CARTESIAN_POINT('',(-1.191792051270753,99.999999999999972,-4.589543133119598));
#110=VERTEX_POINT('',#109);
#111=CARTESIAN_POINT('',(-1.191792051270753,99.999999999999972,-4.589543133119598));
#112=DIRECTION('',(0.0,0.0,1.0));
#113=VECTOR('',#112,2.147329927360495);
#114=LINE('',#111,#113);
#115=EDGE_CURVE('',#110,#101,#114,.T.);
#116=ORIENTED_EDGE('',*,*,#115,.F.);
#117=CARTESIAN_POINT('',(-0.576407435886139,99.999999999999972,-5.512620056196518));
#118=VERTEX_POINT('',#117);
#119=CARTESIAN_POINT('',(-0.191792051270738,99.999999999999972,-4.589543133119598));
#120=DIRECTION('',(0.0,1.0,0.0));
#121=DIRECTION('',(1.0,0.0,0.0));
#122=AXIS2_PLACEMENT_3D('',#119,#120,#121);
#123=CIRCLE('',#122,1.000000000000014);
#124=EDGE_CURVE('',#118,#110,#123,.T.);
#125=ORIENTED_EDGE('',*,*,#124,.F.);
#126=CARTESIAN_POINT('',(-0.391792051270734,99.999999999999972,-5.789543133119572));
#127=VERTEX_POINT('',#126);
#128=CARTESIAN_POINT('',(-0.691792051270745,99.999999999999972,-5.789543133119626));
#129=DIRECTION('',(0.0,-1.0,0.0));
#130=DIRECTION('',(1.0,0.0,1.776357E-013));
#131=AXIS2_PLACEMENT_3D('',#128,#129,#130);
#132=CIRCLE('',#131,0.300000000000011);
#133=EDGE_CURVE('',#127,#118,#132,.T.);
#134=ORIENTED_EDGE('',*,*,#133,.F.);
#135=CARTESIAN_POINT('',(-0.391792051270734,99.999999999999972,-6.489543133119611));
#136=VERTEX_POINT('',#135);
#137=CARTESIAN_POINT('',(-0.391792051270734,99.999999999999972,-6.489543133119611));
#138=DIRECTION('',(0.0,0.0,1.0));
#139=VECTOR('',#138,0.700000000000038);
#140=LINE('',#137,#139);
#141=EDGE_CURVE('',#136,#127,#140,.T.);
#142=ORIENTED_EDGE('',*,*,#141,.F.);
#143=CARTESIAN_POINT('',(-1.391792051270713,99.999999999999972,-7.489543133119607));
#144=VERTEX_POINT('',#143);
#145=CARTESIAN_POINT('',(-1.391792051270677,99.999999999999972,-6.489543133119664));
#146=DIRECTION('',(0.0,-1.0,0.0));
#147=DIRECTION('',(0.0,0.0,-1.0));
#148=AXIS2_PLACEMENT_3D('',#145,#146,#147);
#149=CIRCLE('',#148,0.999999999999943);
#150=EDGE_CURVE('',#144,#136,#149,.T.);
#151=ORIENTED_EDGE('',*,*,#150,.F.);
#152=CARTESIAN_POINT('',(-2.89179205127077,99.999999999999972,-7.489543133119589));
#153=VERTEX_POINT('',#152);
#154=CARTESIAN_POINT('',(-2.89179205127077,99.999999999999972,-7.489543133119589));
#155=DIRECTION('',(1.0,0.0,0.0));
#156=VECTOR('',#155,1.500000000000057);
#157=LINE('',#154,#156);
#158=EDGE_CURVE('',#153,#144,#157,.T.);
#159=ORIENTED_EDGE('',*,*,#158,.F.);
#160=CARTESIAN_POINT('',(-3.891792051270748,99.999999999999972,-6.489543133119593));
#161=VERTEX_POINT('',#160);
#162=CARTESIAN_POINT('',(-2.891792051270805,99.999999999999972,-6.489543133119629));
#163=DIRECTION('',(0.0,-1.0,0.0));
#164=DIRECTION('',(-1.0,0.0,0.0));
#165=AXIS2_PLACEMENT_3D('',#162,#163,#164);
#166=CIRCLE('',#165,0.999999999999943);
#167=EDGE_CURVE('',#161,#153,#166,.T.);
#168=ORIENTED_EDGE('',*,*,#167,.F.);
#169=CARTESIAN_POINT('',(-3.891792051270748,99.999999999999972,5.495067422877629));
#170=VERTEX_POINT('',#169);
#171=CARTESIAN_POINT('',(-3.891792051270748,99.999999999999972,5.495067422877629));
#172=DIRECTION('',(0.0,0.0,-1.0));
#173=VECTOR('',#172,11.984610555997222);
#174=LINE('',#171,#173);
#175=EDGE_CURVE('',#170,#161,#174,.T.);
#176=ORIENTED_EDGE('',*,*,#175,.F.);
#177=CARTESIAN_POINT('',(-2.89179205127077,99.999999999999972,5.495067422877611));
#178=DIRECTION('',(0.0,-1.0,0.0));
#179=DIRECTION('',(0.866025403784443,0.0,0.499999999999992));
#180=AXIS2_PLACEMENT_3D('',#177,#178,#179);
#181=CIRCLE('',#180,1.00000000000003);
#182=EDGE_CURVE('',#76,#170,#181,.T.);
#183=ORIENTED_EDGE('',*,*,#182,.F.);
#184=EDGE_LOOP('',(#82,#91,#99,#108,#116,#125,#134,#142,#151,#159,#168,#176,#183));
#185=FACE_OUTER_BOUND('',#184,.T.);
#186=ADVANCED_FACE('',(#185),#72,.T.);
#187=CARTESIAN_POINT('',(1.748120013879202,49.999999999999972,-2.407521420398364));
#188=DIRECTION('',(-0.499999999999996,0.0,-0.866025403784441));
#189=DIRECTION('',(-0.866025403784441,0.0,0.499999999999996));
#190=AXIS2_PLACEMENT_3D('',#187,#188,#189);
#191=PLANE('',#190);
#192=CARTESIAN_POINT('',(1.748120013879202,-2.664535E-014,-2.407521420398364));
#193=VERTEX_POINT('',#192);
#194=CARTESIAN_POINT('',(0.308207948729269,-2.664535E-014,-1.576187801974669));
#195=VERTEX_POINT('',#194);
#196=CARTESIAN_POINT('',(1.748120013879202,-2.664535E-014,-2.407521420398364));
#197=DIRECTION('',(-0.866025403784441,0.0,0.499999999999996));
#198=VECTOR('',#197,1.662667236847403);
#199=LINE('',#196,#198);
#200=EDGE_CURVE('',#193,#195,#199,.T.);
#201=ORIENTED_EDGE('',*,*,#200,.T.);
#202=CARTESIAN_POINT('',(0.308207948729269,99.999999999999972,-1.576187801974669));
#203=DIRECTION('',(0.0,-1.0,0.0));
#204=VECTOR('',#203,100.0);
#205=LINE('',#202,#204);
#206=EDGE_CURVE('',#93,#195,#205,.T.);
#207=ORIENTED_EDGE('',*,*,#206,.F.);
#208=ORIENTED_EDGE('',*,*,#98,.T.);
#209=CARTESIAN_POINT('',(1.748120013879202,-2.842171E-014,-2.407521420398364));
#210=DIRECTION('',(0.0,1.0,0.0));
#211=VECTOR('',#210,100.0);
#212=LINE('',#209,#211);
#213=EDGE_CURVE('',#193,#84,#212,.T.);
#214=ORIENTED_EDGE('',*,*,#213,.F.);
#215=EDGE_LOOP('',(#201,#207,#208,#214));
#216=FACE_OUTER_BOUND('',#215,.T.);
#217=ADVANCED_FACE('',(#216),#191,.T.);
#218=CARTESIAN_POINT('',(-0.191792051270738,49.999999999999972,-2.442213205759138));
#219=DIRECTION('',(0.0,-1.0,0.0));
#220=DIRECTION('',(-0.499999999999992,0.0,-0.866025403784443));
#221=AXIS2_PLACEMENT_3D('',#218,#219,#220);
#222=CYLINDRICAL_SURFACE('',#221,1.00000000000003);
#223=CARTESIAN_POINT('',(-1.191792051270753,-2.664535E-014,-2.442213205759103));
#224=VERTEX_POINT('',#223);
#225=CARTESIAN_POINT('',(-0.191792051270738,-2.664535E-014,-2.442213205759138));
#226=DIRECTION('',(0.0,-1.0,0.0));
#227=DIRECTION('',(-0.499999999999992,0.0,-0.866025403784443));
#228=AXIS2_PLACEMENT_3D('',#225,#226,#227);
#229=CIRCLE('',#228,1.00000000000003);
#230=EDGE_CURVE('',#195,#224,#229,.T.);
#231=ORIENTED_EDGE('',*,*,#230,.T.);
#232=CARTESIAN_POINT('',(-1.191792051270753,99.999999999999972,-2.442213205759103));
#233=DIRECTION('',(0.0,-1.0,0.0));
#234=VECTOR('',#233,100.0);
#235=LINE('',#232,#234);
#236=EDGE_CURVE('',#101,#224,#235,.T.);
#237=ORIENTED_EDGE('',*,*,#236,.F.);
#238=ORIENTED_EDGE('',*,*,#107,.T.);
#239=ORIENTED_EDGE('',*,*,#206,.T.);
#240=EDGE_LOOP('',(#231,#237,#238,#239));
#241=FACE_OUTER_BOUND('',#240,.T.);
#242=ADVANCED_FACE('',(#241),#222,.F.);
#243=CARTESIAN_POINT('',(-1.191792051270753,49.999999999999972,-2.442213205759103));
#244=DIRECTION('',(1.0,0.0,0.0));
#245=DIRECTION('',(0.0,0.0,-1.0));
#246=AXIS2_PLACEMENT_3D('',#243,#244,#245);
#247=PLANE('',#246);
#248=CARTESIAN_POINT('',(-1.191792051270753,-2.664535E-014,-4.589543133119598));
#249=VERTEX_POINT('',#248);
#250=CARTESIAN_POINT('',(-1.191792051270753,-2.664535E-014,-2.442213205759103));
#251=DIRECTION('',(0.0,0.0,-1.0));
#252=VECTOR('',#251,2.147329927360495);
#253=LINE('',#250,#252);
#254=EDGE_CURVE('',#224,#249,#253,.T.);
#255=ORIENTED_EDGE('',*,*,#254,.T.);
#256=CARTESIAN_POINT('',(-1.191792051270753,99.999999999999972,-4.589543133119598));
#257=DIRECTION('',(0.0,-1.0,0.0));
#258=VECTOR('',#257,100.0);
#259=LINE('',#256,#258);
#260=EDGE_CURVE('',#110,#249,#259,.T.);
#261=ORIENTED_EDGE('',*,*,#260,.F.);
#262=ORIENTED_EDGE('',*,*,#115,.T.);
#263=ORIENTED_EDGE('',*,*,#236,.T.);
#264=EDGE_LOOP('',(#255,#261,#262,#263));
#265=FACE_OUTER_BOUND('',#264,.T.);
#266=ADVANCED_FACE('',(#265),#247,.T.);
#267=CARTESIAN_POINT('',(-0.191792051270738,49.999999999999972,-4.589543133119598));
#268=DIRECTION('',(0.0,-1.0,0.0));
#269=DIRECTION('',(1.0,0.0,0.0));
#270=AXIS2_PLACEMENT_3D('',#267,#268,#269);
#271=CYLINDRICAL_SURFACE('',#270,1.000000000000014);
#272=CARTESIAN_POINT('',(-0.576407435886139,-2.664535E-014,-5.512620056196518));
#273=VERTEX_POINT('',#272);
#274=CARTESIAN_POINT('',(-0.191792051270738,-2.664535E-014,-4.589543133119598));
#275=DIRECTION('',(0.0,-1.0,0.0));
#276=DIRECTION('',(1.0,0.0,0.0));
#277=AXIS2_PLACEMENT_3D('',#274,#275,#276);
#278=CIRCLE('',#277,1.000000000000014);
#279=EDGE_CURVE('',#249,#273,#278,.T.);
#280=ORIENTED_EDGE('',*,*,#279,.T.);
#281=CARTESIAN_POINT('',(-0.576407435886139,99.999999999999972,-5.512620056196518));
#282=DIRECTION('',(0.0,-1.0,0.0));
#283=VECTOR('',#282,100.0);
#284=LINE('',#281,#283);
#285=EDGE_CURVE('',#118,#273,#284,.T.);
#286=ORIENTED_EDGE('',*,*,#285,.F.);
#287=ORIENTED_EDGE('',*,*,#124,.T.);
#288=ORIENTED_EDGE('',*,*,#260,.T.);
#289=EDGE_LOOP('',(#280,#286,#287,#288));
#290=FACE_OUTER_BOUND('',#289,.T.);
#291=ADVANCED_FACE('',(#290),#271,.F.);
#292=CARTESIAN_POINT('',(-0.691792051270745,49.999999999999972,-5.789543133119626));
#293=DIRECTION('',(0.0,-1.0,0.0));
#294=DIRECTION('',(1.0,0.0,1.776357E-013));
#295=AXIS2_PLACEMENT_3D('',#292,#293,#294);
#296=CYLINDRICAL_SURFACE('',#295,0.300000000000011);
#297=CARTESIAN_POINT('',(-0.391792051270734,-2.664535E-014,-5.789543133119572));
#298=VERTEX_POINT('',#297);
#299=CARTESIAN_POINT('',(-0.691792051270745,-2.664535E-014,-5.789543133119626));
#300=DIRECTION('',(0.0,1.0,0.0));
#301=DIRECTION('',(1.0,0.0,1.776357E-013));
#302=AXIS2_PLACEMENT_3D('',#299,#300,#301);
#303=CIRCLE('',#302,0.300000000000011);
#304=EDGE_CURVE('',#273,#298,#303,.T.);
#305=ORIENTED_EDGE('',*,*,#304,.T.);
#306=CARTESIAN_POINT('',(-0.391792051270734,99.999999999999972,-5.789543133119572));
#307=DIRECTION('',(0.0,-1.0,0.0));
#308=VECTOR('',#307,100.0);
#309=LINE('',#306,#308);
#310=EDGE_CURVE('',#127,#298,#309,.T.);
#311=ORIENTED_EDGE('',*,*,#310,.F.);
#312=ORIENTED_EDGE('',*,*,#133,.T.);
#313=ORIENTED_EDGE('',*,*,#285,.T.);
#314=EDGE_LOOP('',(#305,#311,#312,#313));
#315=FACE_OUTER_BOUND('',#314,.T.);
#316=ADVANCED_FACE('',(#315),#296,.T.);
#317=CARTESIAN_POINT('',(-0.391792051270734,49.999999999999972,-5.789543133119572));
#318=DIRECTION('',(1.0,0.0,0.0));
#319=DIRECTION('',(0.0,0.0,-1.0));
#320=AXIS2_PLACEMENT_3D('',#317,#318,#319);
#321=PLANE('',#320);
#322=CARTESIAN_POINT('',(-0.391792051270734,-2.664535E-014,-6.489543133119611));
#323=VERTEX_POINT('',#322);
#324=CARTESIAN_POINT('',(-0.391792051270734,-2.664535E-014,-5.789543133119572));
#325=DIRECTION('',(0.0,0.0,-1.0));
#326=VECTOR('',#325,0.700000000000038);
#327=LINE('',#324,#326);
#328=EDGE_CURVE('',#298,#323,#327,.T.);
#329=ORIENTED_EDGE('',*,*,#328,.T.);
#330=CARTESIAN_POINT('',(-0.391792051270734,99.999999999999972,-6.489543133119611));
#331=DIRECTION('',(0.0,-1.0,0.0));
#332=VECTOR('',#331,100.0);
#333=LINE('',#330,#332);
#334=EDGE_CURVE('',#136,#323,#333,.T.);
#335=ORIENTED_EDGE('',*,*,#334,.F.);
#336=ORIENTED_EDGE('',*,*,#141,.T.);
#337=ORIENTED_EDGE('',*,*,#310,.T.);
#338=EDGE_LOOP('',(#329,#335,#336,#337));
#339=FACE_OUTER_BOUND('',#338,.T.);
#340=ADVANCED_FACE('',(#339),#321,.T.);
#341=CARTESIAN_POINT('',(-1.391792051270677,49.999999999999972,-6.489543133119664));
#342=DIRECTION('',(0.0,-1.0,0.0));
#343=DIRECTION('',(0.0,0.0,-1.0));
#344=AXIS2_PLACEMENT_3D('',#341,#342,#343);
#345=CYLINDRICAL_SURFACE('',#344,0.999999999999943);
#346=CARTESIAN_POINT('',(-1.391792051270713,-2.664535E-014,-7.489543133119607));
#347=VERTEX_POINT('',#346);
#348=CARTESIAN_POINT('',(-1.391792051270677,-2.664535E-014,-6.489543133119664));
#349=DIRECTION('',(0.0,1.0,0.0));
#350=DIRECTION('',(0.0,0.0,-1.0));
#351=AXIS2_PLACEMENT_3D('',#348,#349,#350);
#352=CIRCLE('',#351,0.999999999999943);
#353=EDGE_CURVE('',#323,#347,#352,.T.);
#354=ORIENTED_EDGE('',*,*,#353,.T.);
#355=CARTESIAN_POINT('',(-1.391792051270713,99.999999999999972,-7.489543133119607));
#356=DIRECTION('',(0.0,-1.0,0.0));
#357=VECTOR('',#356,100.0);
#358=LINE('',#355,#357);
#359=EDGE_CURVE('',#144,#347,#358,.T.);
#360=ORIENTED_EDGE('',*,*,#359,.F.);
#361=ORIENTED_EDGE('',*,*,#150,.T.);
#362=ORIENTED_EDGE('',*,*,#334,.T.);
#363=EDGE_LOOP('',(#354,#360,#361,#362));
#364=FACE_OUTER_BOUND('',#363,.T.);
#365=ADVANCED_FACE('',(#364),#345,.T.);
#366=CARTESIAN_POINT('',(-1.391792051270713,49.999999999999972,-7.489543133119607));
#367=DIRECTION('',(0.0,0.0,-1.0));
#368=DIRECTION('',(-1.0,0.0,0.0));
#369=AXIS2_PLACEMENT_3D('',#366,#367,#368);
#370=PLANE('',#369);
#371=CARTESIAN_POINT('',(-2.89179205127077,-2.664535E-014,-7.489543133119589));
#372=VERTEX_POINT('',#371);
#373=CARTESIAN_POINT('',(-1.391792051270713,-2.664535E-014,-7.489543133119607));
#374=DIRECTION('',(-1.0,0.0,0.0));
#375=VECTOR('',#374,1.500000000000057);
#376=LINE('',#373,#375);
#377=EDGE_CURVE('',#347,#372,#376,.T.);
#378=ORIENTED_EDGE('',*,*,#377,.T.);
#379=CARTESIAN_POINT('',(-2.89179205127077,99.999999999999972,-7.489543133119589));
#380=DIRECTION('',(0.0,-1.0,0.0));
#381=VECTOR('',#380,100.0);
#382=LINE('',#379,#381);
#383=EDGE_CURVE('',#153,#372,#382,.T.);
#384=ORIENTED_EDGE('',*,*,#383,.F.);
#385=ORIENTED_EDGE('',*,*,#158,.T.);
#386=ORIENTED_EDGE('',*,*,#359,.T.);
#387=EDGE_LOOP('',(#378,#384,#385,#386));
#388=FACE_OUTER_BOUND('',#387,.T.);
#389=ADVANCED_FACE('',(#388),#370,.T.);
#390=CARTESIAN_POINT('',(-2.891792051270805,49.999999999999972,-6.489543133119629));
#391=DIRECTION('',(0.0,-1.0,0.0));
#392=DIRECTION('',(-1.0,0.0,0.0));
#393=AXIS2_PLACEMENT_3D('',#390,#391,#392);
#394=CYLINDRICAL_SURFACE('',#393,0.999999999999943);
#395=CARTESIAN_POINT('',(-3.891792051270748,-2.664535E-014,-6.489543133119593));
#396=VERTEX_POINT('',#395);
#397=CARTESIAN_POINT('',(-2.891792051270805,-2.664535E-014,-6.489543133119629));
#398=DIRECTION('',(0.0,1.0,0.0));
#399=DIRECTION('',(-1.0,0.0,0.0));
#400=AXIS2_PLACEMENT_3D('',#397,#398,#399);
#401=CIRCLE('',#400,0.999999999999943);
#402=EDGE_CURVE('',#372,#396,#401,.T.);
#403=ORIENTED_EDGE('',*,*,#402,.T.);
#404=CARTESIAN_POINT('',(-3.891792051270748,99.999999999999972,-6.489543133119593));
#405=DIRECTION('',(0.0,-1.0,0.0));
#406=VECTOR('',#405,100.0);
#407=LINE('',#404,#406);
#408=EDGE_CURVE('',#161,#396,#407,.T.);
#409=ORIENTED_EDGE('',*,*,#408,.F.);
#410=ORIENTED_EDGE('',*,*,#167,.T.);
#411=ORIENTED_EDGE('',*,*,#383,.T.);
#412=EDGE_LOOP('',(#403,#409,#410,#411));
#413=FACE_OUTER_BOUND('',#412,.T.);
#414=ADVANCED_FACE('',(#413),#394,.T.);
#415=CARTESIAN_POINT('',(-3.891792051270748,49.999999999999972,-6.489543133119593));
#416=DIRECTION('',(-1.0,0.0,0.0));
#417=DIRECTION('',(0.0,0.0,1.0));
#418=AXIS2_PLACEMENT_3D('',#415,#416,#417);
#419=PLANE('',#418);
#420=CARTESIAN_POINT('',(-3.891792051270748,-2.664535E-014,5.495067422877629));
#421=VERTEX_POINT('',#420);
#422=CARTESIAN_POINT('',(-3.891792051270748,-2.664535E-014,-6.489543133119593));
#423=DIRECTION('',(0.0,0.0,1.0));
#424=VECTOR('',#423,11.984610555997222);
#425=LINE('',#422,#424);
#426=EDGE_CURVE('',#396,#421,#425,.T.);
#427=ORIENTED_EDGE('',*,*,#426,.T.);
#428=CARTESIAN_POINT('',(-3.891792051270748,99.999999999999972,5.495067422877629));
#429=DIRECTION('',(0.0,-1.0,0.0));
#430=VECTOR('',#429,100.0);
#431=LINE('',#428,#430);
#432=EDGE_CURVE('',#170,#421,#431,.T.);
#433=ORIENTED_EDGE('',*,*,#432,.F.);
#434=ORIENTED_EDGE('',*,*,#175,.T.);
#435=ORIENTED_EDGE('',*,*,#408,.T.);
#436=EDGE_LOOP('',(#427,#433,#434,#435));
#437=FACE_OUTER_BOUND('',#436,.T.);
#438=ADVANCED_FACE('',(#437),#419,.T.);
#439=CARTESIAN_POINT('',(-2.89179205127077,49.999999999999972,5.495067422877611));
#440=DIRECTION('',(0.0,-1.0,0.0));
#441=DIRECTION('',(0.866025403784443,0.0,0.499999999999992));
#442=AXIS2_PLACEMENT_3D('',#439,#440,#441);
#443=CYLINDRICAL_SURFACE('',#442,1.00000000000003);
#444=CARTESIAN_POINT('',(-2.0257666474863,-2.664535E-014,5.995067422877618));
#445=VERTEX_POINT('',#444);
#446=CARTESIAN_POINT('',(-2.89179205127077,-2.664535E-014,5.495067422877611));
#447=DIRECTION('',(0.0,1.0,0.0));
#448=DIRECTION('',(0.866025403784443,0.0,0.499999999999992));
#449=AXIS2_PLACEMENT_3D('',#446,#447,#448);
#450=CIRCLE('',#449,1.00000000000003);
#451=EDGE_CURVE('',#421,#445,#450,.T.);
#452=ORIENTED_EDGE('',*,*,#451,.T.);
#453=CARTESIAN_POINT('',(-2.0257666474863,99.999999999999972,5.995067422877618));
#454=DIRECTION('',(0.0,-1.0,0.0));
#455=VECTOR('',#454,100.0);
#456=LINE('',#453,#455);
#457=EDGE_CURVE('',#76,#445,#456,.T.);
#458=ORIENTED_EDGE('',*,*,#457,.F.);
#459=ORIENTED_EDGE('',*,*,#182,.T.);
#460=ORIENTED_EDGE('',*,*,#432,.T.);
#461=EDGE_LOOP('',(#452,#458,#459,#460));
#462=FACE_OUTER_BOUND('',#461,.T.);
#463=ADVANCED_FACE('',(#462),#443,.T.);
#464=CARTESIAN_POINT('',(-2.0257666474863,49.999999999999972,5.995067422877618));
#465=DIRECTION('',(0.86602540378444,0.0,0.499999999999998));
#466=DIRECTION('',(0.499999999999998,0.0,-0.86602540378444));
#467=AXIS2_PLACEMENT_3D('',#464,#465,#466);
#468=PLANE('',#467);
#469=CARTESIAN_POINT('',(2.431132715771405,-2.664535E-014,-1.724508718506144));
#470=VERTEX_POINT('',#469);
#471=CARTESIAN_POINT('',(-2.0257666474863,-2.664535E-014,5.995067422877616));
#472=DIRECTION('',(0.499999999999998,0.0,-0.86602540378444));
#473=VECTOR('',#472,8.913798726515442);
#474=LINE('',#471,#473);
#475=EDGE_CURVE('',#445,#470,#474,.T.);
#476=ORIENTED_EDGE('',*,*,#475,.T.);
#477=CARTESIAN_POINT('',(2.431132715771405,99.999999999999972,-1.724508718506144));
#478=DIRECTION('',(0.0,-1.0,0.0));
#479=VECTOR('',#478,100.0);
#480=LINE('',#477,#479);
#481=EDGE_CURVE('',#74,#470,#480,.T.);
#482=ORIENTED_EDGE('',*,*,#481,.F.);
#483=ORIENTED_EDGE('',*,*,#81,.T.);
#484=ORIENTED_EDGE('',*,*,#457,.T.);
#485=EDGE_LOOP('',(#476,#482,#483,#484));
#486=FACE_OUTER_BOUND('',#485,.T.);
#487=ADVANCED_FACE('',(#486),#468,.T.);
#488=CARTESIAN_POINT('',(1.998120013879188,49.999999999999972,-1.974508718506165));
#489=DIRECTION('',(0.0,-1.0,0.0));
#490=DIRECTION('',(-0.499999999999996,0.0,-0.866025403784441));
#491=AXIS2_PLACEMENT_3D('',#488,#489,#490);
#492=CYLINDRICAL_SURFACE('',#491,0.499999999999975);
#493=CARTESIAN_POINT('',(1.998120013879188,-2.664535E-014,-1.974508718506165));
#494=DIRECTION('',(0.0,1.0,0.0));
#495=DIRECTION('',(-0.499999999999996,0.0,-0.866025403784441));
#496=AXIS2_PLACEMENT_3D('',#493,#494,#495);
#497=CIRCLE('',#496,0.499999999999975);
#498=EDGE_CURVE('',#470,#193,#497,.T.);
#499=ORIENTED_EDGE('',*,*,#498,.T.);
#500=ORIENTED_EDGE('',*,*,#213,.T.);
#501=ORIENTED_EDGE('',*,*,#90,.T.);
#502=ORIENTED_EDGE('',*,*,#481,.T.);
#503=EDGE_LOOP('',(#499,#500,#501,#502));
#504=FACE_OUTER_BOUND('',#503,.T.);
#505=ADVANCED_FACE('',(#504),#492,.T.);
#506=CARTESIAN_POINT('',(-1.689807762622065,-2.664535E-014,-0.906994047876984));
#507=DIRECTION('',(0.0,1.0,0.0));
#508=DIRECTION('',(0.0,0.0,1.0));
#509=AXIS2_PLACEMENT_3D('',#506,#507,#508);
#510=PLANE('',#509);
#511=ORIENTED_EDGE('',*,*,#200,.F.);
#512=ORIENTED_EDGE('',*,*,#498,.F.);
#513=ORIENTED_EDGE('',*,*,#475,.F.);
#514=ORIENTED_EDGE('',*,*,#451,.F.);
#515=ORIENTED_EDGE('',*,*,#426,.F.);
#516=ORIENTED_EDGE('',*,*,#402,.F.);
#517=ORIENTED_EDGE('',*,*,#377,.F.);
#518=ORIENTED_EDGE('',*,*,#353,.F.);
#519=ORIENTED_EDGE('',*,*,#328,.F.);
#520=ORIENTED_EDGE('',*,*,#304,.F.);
#521=ORIENTED_EDGE('',*,*,#279,.F.);
#522=ORIENTED_EDGE('',*,*,#254,.F.);
#523=ORIENTED_EDGE('',*,*,#230,.F.);
#524=EDGE_LOOP('',(#511,#512,#513,#514,#515,#516,#517,#518,#519,#520,#521,#522,#523));
#525=FACE_OUTER_BOUND('',#524,.T.);
#526=ADVANCED_FACE('',(#525),#510,.F.);
#527=CLOSED_SHELL('',(#186,#217,#242,#266,#291,#316,#340,#365,#389,#414,#438,#463,#487,#505,#526));
#528=MANIFOLD_SOLID_BREP('Volumenk\S\vrper1',#527);
#529=DRAUGHTING_PRE_DEFINED_COLOUR('black');
#530=FILL_AREA_STYLE_COLOUR('Schwarz',#529);
#531=FILL_AREA_STYLE('Schwarz',(#530));
#532=SURFACE_STYLE_FILL_AREA(#531);
#533=SURFACE_SIDE_STYLE('Schwarz',(#532));
#534=SURFACE_STYLE_USAGE(.BOTH.,#533);
#535=PRESENTATION_STYLE_ASSIGNMENT((#534));
#536=STYLED_ITEM('',(#535),#528);
#537=MECHANICAL_DESIGN_GEOMETRIC_PRESENTATION_REPRESENTATION('',(#536),#36);
#538=ADVANCED_BREP_SHAPE_REPRESENTATION('ABSR',(#528),#36);
#539=SHAPE_REPRESENTATION_RELATIONSHIP('SRR','None',#538,#41);
ENDSEC;
END-ISO-10303-21;
