ISO-10303-21;
HEADER;
/* Generated by software containing ST-Developer
 * from STEP Tools, Inc. (www.steptools.com) 
 */

FILE_DESCRIPTION(
/* description */ ('Stahlwinkel 30x30, schwarz'),
/* implementation_level */ '2;1');

FILE_NAME(
/* name */ 
'T:\\Produktinformationen\\MT\\B45\\3D-Files B45\\Stahlwinkel\\4027000
03 Stahlwinkel 30x30 schwarz.stp',
/* time_stamp */ '2019-10-16T13:54:27+02:00',
/* author */ ('wheldmann'),
/* organization */ (''),
/* preprocessor_version */ 'ST-DEVELOPER v17.2',
/* originating_system */ 'Autodesk Inventor 2019',
/* authorisation */ ' ');

FILE_SCHEMA (('AUTOMOTIVE_DESIGN { 1 0 10303 214 3 1 1 }'));
ENDSEC;

DATA;
#10=MECHANICAL_DESIGN_GEOMETRIC_PRESENTATION_REPRESENTATION('',(#13),#353);
#11=SHAPE_REPRESENTATION_RELATIONSHIP('SRR','None',#360,#12);
#12=ADVANCED_BREP_SHAPE_REPRESENTATION('',(#14),#352);
#13=STYLED_ITEM('',(#369),#14);
#14=MANIFOLD_SOLID_BREP('Volumenk\X\F6rper2',#205);
#15=CONICAL_SURFACE('',#233,3.3,0.7684506336);
#16=CONICAL_SURFACE('',#236,6.2,0.7684506336);
#17=FACE_BOUND('',#38,.T.);
#18=FACE_BOUND('',#42,.T.);
#19=FACE_BOUND('',#48,.T.);
#20=FACE_BOUND('',#50,.T.);
#21=CIRCLE('',#226,6.2);
#22=CIRCLE('',#227,6.2);
#23=CIRCLE('',#231,6.2);
#24=CIRCLE('',#234,3.3);
#25=CIRCLE('',#235,3.3);
#26=CIRCLE('',#237,3.3);
#27=FACE_OUTER_BOUND('',#37,.T.);
#28=FACE_OUTER_BOUND('',#39,.T.);
#29=FACE_OUTER_BOUND('',#40,.T.);
#30=FACE_OUTER_BOUND('',#41,.T.);
#31=FACE_OUTER_BOUND('',#43,.T.);
#32=FACE_OUTER_BOUND('',#44,.T.);
#33=FACE_OUTER_BOUND('',#45,.T.);
#34=FACE_OUTER_BOUND('',#46,.T.);
#35=FACE_OUTER_BOUND('',#47,.T.);
#36=FACE_OUTER_BOUND('',#49,.T.);
#37=EDGE_LOOP('',(#135,#136,#137,#138));
#38=EDGE_LOOP('',(#139,#140));
#39=EDGE_LOOP('',(#141,#142,#143,#144,#145,#146));
#40=EDGE_LOOP('',(#147,#148,#149,#150));
#41=EDGE_LOOP('',(#151,#152,#153,#154));
#42=EDGE_LOOP('',(#155));
#43=EDGE_LOOP('',(#156,#157,#158,#159));
#44=EDGE_LOOP('',(#160,#161,#162,#163,#164,#165));
#45=EDGE_LOOP('',(#166,#167,#168,#169));
#46=EDGE_LOOP('',(#170,#171,#172,#173,#174,#175));
#47=EDGE_LOOP('',(#176,#177,#178,#179));
#48=EDGE_LOOP('',(#180));
#49=EDGE_LOOP('',(#181,#182,#183,#184));
#50=EDGE_LOOP('',(#185,#186));
#51=LINE('',#299,#71);
#52=LINE('',#301,#72);
#53=LINE('',#303,#73);
#54=LINE('',#304,#74);
#55=LINE('',#311,#75);
#56=LINE('',#313,#76);
#57=LINE('',#315,#77);
#58=LINE('',#317,#78);
#59=LINE('',#318,#79);
#60=LINE('',#321,#80);
#61=LINE('',#322,#81);
#62=LINE('',#325,#82);
#63=LINE('',#326,#83);
#64=LINE('',#331,#84);
#65=LINE('',#332,#85);
#66=LINE('',#338,#86);
#67=LINE('',#342,#87);
#68=LINE('',#345,#88);
#69=LINE('',#346,#89);
#70=LINE('',#348,#90);
#71=VECTOR('',#245,1000.);
#72=VECTOR('',#246,1000.);
#73=VECTOR('',#247,1000.);
#74=VECTOR('',#248,1000.);
#75=VECTOR('',#255,1000.);
#76=VECTOR('',#256,1000.);
#77=VECTOR('',#257,1000.);
#78=VECTOR('',#258,1000.);
#79=VECTOR('',#259,1000.);
#80=VECTOR('',#262,1000.);
#81=VECTOR('',#263,1000.);
#82=VECTOR('',#266,1000.);
#83=VECTOR('',#267,1000.);
#84=VECTOR('',#272,1000.);
#85=VECTOR('',#273,1000.);
#86=VECTOR('',#280,3.3);
#87=VECTOR('',#285,6.2);
#88=VECTOR('',#288,1000.);
#89=VECTOR('',#289,1000.);
#90=VECTOR('',#292,1000.);
#91=VERTEX_POINT('',#297);
#92=VERTEX_POINT('',#298);
#93=VERTEX_POINT('',#300);
#94=VERTEX_POINT('',#302);
#95=VERTEX_POINT('',#305);
#96=VERTEX_POINT('',#306);
#97=VERTEX_POINT('',#310);
#98=VERTEX_POINT('',#312);
#99=VERTEX_POINT('',#314);
#100=VERTEX_POINT('',#316);
#101=VERTEX_POINT('',#320);
#102=VERTEX_POINT('',#324);
#103=VERTEX_POINT('',#327);
#104=VERTEX_POINT('',#330);
#105=VERTEX_POINT('',#334);
#106=VERTEX_POINT('',#335);
#107=VERTEX_POINT('',#340);
#108=VERTEX_POINT('',#344);
#109=EDGE_CURVE('',#91,#92,#51,.T.);
#110=EDGE_CURVE('',#93,#92,#52,.T.);
#111=EDGE_CURVE('',#94,#93,#53,.T.);
#112=EDGE_CURVE('',#94,#91,#54,.T.);
#113=EDGE_CURVE('',#95,#96,#21,.T.);
#114=EDGE_CURVE('',#96,#95,#22,.T.);
#115=EDGE_CURVE('',#93,#97,#55,.T.);
#116=EDGE_CURVE('',#97,#98,#56,.T.);
#117=EDGE_CURVE('',#98,#99,#57,.T.);
#118=EDGE_CURVE('',#99,#100,#58,.T.);
#119=EDGE_CURVE('',#100,#94,#59,.T.);
#120=EDGE_CURVE('',#101,#91,#60,.T.);
#121=EDGE_CURVE('',#100,#101,#61,.T.);
#122=EDGE_CURVE('',#92,#102,#62,.T.);
#123=EDGE_CURVE('',#97,#102,#63,.T.);
#124=EDGE_CURVE('',#103,#103,#23,.T.);
#125=EDGE_CURVE('',#102,#104,#64,.T.);
#126=EDGE_CURVE('',#98,#104,#65,.T.);
#127=EDGE_CURVE('',#105,#106,#24,.T.);
#128=EDGE_CURVE('',#106,#105,#25,.T.);
#129=EDGE_CURVE('',#106,#96,#66,.T.);
#130=EDGE_CURVE('',#107,#107,#26,.T.);
#131=EDGE_CURVE('',#107,#103,#67,.T.);
#132=EDGE_CURVE('',#108,#101,#68,.T.);
#133=EDGE_CURVE('',#104,#108,#69,.T.);
#134=EDGE_CURVE('',#99,#108,#70,.T.);
#135=ORIENTED_EDGE('',*,*,#109,.T.);
#136=ORIENTED_EDGE('',*,*,#110,.F.);
#137=ORIENTED_EDGE('',*,*,#111,.F.);
#138=ORIENTED_EDGE('',*,*,#112,.T.);
#139=ORIENTED_EDGE('',*,*,#113,.F.);
#140=ORIENTED_EDGE('',*,*,#114,.F.);
#141=ORIENTED_EDGE('',*,*,#115,.T.);
#142=ORIENTED_EDGE('',*,*,#116,.T.);
#143=ORIENTED_EDGE('',*,*,#117,.T.);
#144=ORIENTED_EDGE('',*,*,#118,.T.);
#145=ORIENTED_EDGE('',*,*,#119,.T.);
#146=ORIENTED_EDGE('',*,*,#111,.T.);
#147=ORIENTED_EDGE('',*,*,#120,.T.);
#148=ORIENTED_EDGE('',*,*,#112,.F.);
#149=ORIENTED_EDGE('',*,*,#119,.F.);
#150=ORIENTED_EDGE('',*,*,#121,.T.);
#151=ORIENTED_EDGE('',*,*,#122,.T.);
#152=ORIENTED_EDGE('',*,*,#123,.F.);
#153=ORIENTED_EDGE('',*,*,#115,.F.);
#154=ORIENTED_EDGE('',*,*,#110,.T.);
#155=ORIENTED_EDGE('',*,*,#124,.T.);
#156=ORIENTED_EDGE('',*,*,#125,.T.);
#157=ORIENTED_EDGE('',*,*,#126,.F.);
#158=ORIENTED_EDGE('',*,*,#116,.F.);
#159=ORIENTED_EDGE('',*,*,#123,.T.);
#160=ORIENTED_EDGE('',*,*,#127,.F.);
#161=ORIENTED_EDGE('',*,*,#128,.F.);
#162=ORIENTED_EDGE('',*,*,#129,.T.);
#163=ORIENTED_EDGE('',*,*,#114,.T.);
#164=ORIENTED_EDGE('',*,*,#113,.T.);
#165=ORIENTED_EDGE('',*,*,#129,.F.);
#166=ORIENTED_EDGE('',*,*,#130,.T.);
#167=ORIENTED_EDGE('',*,*,#131,.T.);
#168=ORIENTED_EDGE('',*,*,#124,.F.);
#169=ORIENTED_EDGE('',*,*,#131,.F.);
#170=ORIENTED_EDGE('',*,*,#122,.F.);
#171=ORIENTED_EDGE('',*,*,#109,.F.);
#172=ORIENTED_EDGE('',*,*,#120,.F.);
#173=ORIENTED_EDGE('',*,*,#132,.F.);
#174=ORIENTED_EDGE('',*,*,#133,.F.);
#175=ORIENTED_EDGE('',*,*,#125,.F.);
#176=ORIENTED_EDGE('',*,*,#133,.T.);
#177=ORIENTED_EDGE('',*,*,#134,.F.);
#178=ORIENTED_EDGE('',*,*,#117,.F.);
#179=ORIENTED_EDGE('',*,*,#126,.T.);
#180=ORIENTED_EDGE('',*,*,#130,.F.);
#181=ORIENTED_EDGE('',*,*,#132,.T.);
#182=ORIENTED_EDGE('',*,*,#121,.F.);
#183=ORIENTED_EDGE('',*,*,#118,.F.);
#184=ORIENTED_EDGE('',*,*,#134,.T.);
#185=ORIENTED_EDGE('',*,*,#127,.T.);
#186=ORIENTED_EDGE('',*,*,#128,.T.);
#187=PLANE('',#225);
#188=PLANE('',#228);
#189=PLANE('',#229);
#190=PLANE('',#230);
#191=PLANE('',#232);
#192=PLANE('',#238);
#193=PLANE('',#239);
#194=PLANE('',#240);
#195=ADVANCED_FACE('',(#27,#17),#187,.F.);
#196=ADVANCED_FACE('',(#28),#188,.T.);
#197=ADVANCED_FACE('',(#29),#189,.F.);
#198=ADVANCED_FACE('',(#30,#18),#190,.F.);
#199=ADVANCED_FACE('',(#31),#191,.F.);
#200=ADVANCED_FACE('',(#32),#15,.F.);
#201=ADVANCED_FACE('',(#33),#16,.F.);
#202=ADVANCED_FACE('',(#34),#192,.F.);
#203=ADVANCED_FACE('',(#35,#19),#193,.F.);
#204=ADVANCED_FACE('',(#36,#20),#194,.F.);
#205=CLOSED_SHELL('',(#195,#196,#197,#198,#199,#200,#201,#202,#203,#204));
#206=DERIVED_UNIT_ELEMENT(#208,1.);
#207=DERIVED_UNIT_ELEMENT(#355,3.);
#208=(
MASS_UNIT()
NAMED_UNIT(*)
SI_UNIT($,.GRAM.)
);
#209=DERIVED_UNIT((#206,#207));
#210=MEASURE_REPRESENTATION_ITEM('density measure',
POSITIVE_RATIO_MEASURE(7.85),#209);
#211=PROPERTY_DEFINITION_REPRESENTATION(#216,#213);
#212=PROPERTY_DEFINITION_REPRESENTATION(#217,#214);
#213=REPRESENTATION('material name',(#215),#352);
#214=REPRESENTATION('density',(#210),#352);
#215=DESCRIPTIVE_REPRESENTATION_ITEM('Stahl','Stahl');
#216=PROPERTY_DEFINITION('material property','material name',#362);
#217=PROPERTY_DEFINITION('material property','density of part',#362);
#218=DATE_TIME_ROLE('creation_date');
#219=APPLIED_DATE_AND_TIME_ASSIGNMENT(#220,#218,(#362));
#220=DATE_AND_TIME(#221,#222);
#221=CALENDAR_DATE(2019,16,10);
#222=LOCAL_TIME(11,0,23.,#223);
#223=COORDINATED_UNIVERSAL_TIME_OFFSET(0,0,.BEHIND.);
#224=AXIS2_PLACEMENT_3D('placement',#295,#241,#242);
#225=AXIS2_PLACEMENT_3D('',#296,#243,#244);
#226=AXIS2_PLACEMENT_3D('',#307,#249,#250);
#227=AXIS2_PLACEMENT_3D('',#308,#251,#252);
#228=AXIS2_PLACEMENT_3D('',#309,#253,#254);
#229=AXIS2_PLACEMENT_3D('',#319,#260,#261);
#230=AXIS2_PLACEMENT_3D('',#323,#264,#265);
#231=AXIS2_PLACEMENT_3D('',#328,#268,#269);
#232=AXIS2_PLACEMENT_3D('',#329,#270,#271);
#233=AXIS2_PLACEMENT_3D('',#333,#274,#275);
#234=AXIS2_PLACEMENT_3D('',#336,#276,#277);
#235=AXIS2_PLACEMENT_3D('',#337,#278,#279);
#236=AXIS2_PLACEMENT_3D('',#339,#281,#282);
#237=AXIS2_PLACEMENT_3D('',#341,#283,#284);
#238=AXIS2_PLACEMENT_3D('',#343,#286,#287);
#239=AXIS2_PLACEMENT_3D('',#347,#290,#291);
#240=AXIS2_PLACEMENT_3D('',#349,#293,#294);
#241=DIRECTION('axis',(0.,0.,1.));
#242=DIRECTION('refdir',(1.,0.,0.));
#243=DIRECTION('center_axis',(0.,0.,-1.));
#244=DIRECTION('ref_axis',(1.,-1.22464679914735E-16,0.));
#245=DIRECTION('',(1.22464679914735E-16,1.,0.));
#246=DIRECTION('',(1.,-1.22464679914735E-16,0.));
#247=DIRECTION('',(1.22464679914735E-16,1.,0.));
#248=DIRECTION('',(1.,-1.22464679914735E-16,0.));
#249=DIRECTION('center_axis',(0.,0.,1.));
#250=DIRECTION('ref_axis',(-1.,1.22464679914735E-16,0.));
#251=DIRECTION('center_axis',(0.,0.,1.));
#252=DIRECTION('ref_axis',(-1.,1.22464679914735E-16,0.));
#253=DIRECTION('center_axis',(-1.,1.22464679914735E-16,0.));
#254=DIRECTION('ref_axis',(0.,0.,-1.));
#255=DIRECTION('',(0.,0.,1.));
#256=DIRECTION('',(1.22464679914735E-16,1.,0.));
#257=DIRECTION('',(0.,0.,-1.));
#258=DIRECTION('',(-1.22464679914735E-16,-1.,0.));
#259=DIRECTION('',(0.,0.,1.));
#260=DIRECTION('center_axis',(1.22464679914735E-16,1.,0.));
#261=DIRECTION('ref_axis',(0.,0.,-1.));
#262=DIRECTION('',(0.,0.,1.));
#263=DIRECTION('',(1.,-1.22464679914735E-16,0.));
#264=DIRECTION('center_axis',(1.22464679914735E-16,1.,0.));
#265=DIRECTION('ref_axis',(0.,0.,-1.));
#266=DIRECTION('',(0.,0.,1.));
#267=DIRECTION('',(1.,-1.22464679914735E-16,0.));
#268=DIRECTION('center_axis',(1.22464679914735E-16,1.,0.));
#269=DIRECTION('ref_axis',(0.,0.,-1.));
#270=DIRECTION('center_axis',(0.,0.,-1.));
#271=DIRECTION('ref_axis',(1.,-1.22464679914735E-16,0.));
#272=DIRECTION('',(1.22464679914735E-16,1.,0.));
#273=DIRECTION('',(1.,-1.22464679914735E-16,0.));
#274=DIRECTION('center_axis',(0.,0.,1.));
#275=DIRECTION('ref_axis',(-1.,1.22464679914735E-16,0.));
#276=DIRECTION('center_axis',(0.,0.,1.));
#277=DIRECTION('ref_axis',(-1.,1.22464679914735E-16,0.));
#278=DIRECTION('center_axis',(0.,0.,1.));
#279=DIRECTION('ref_axis',(-1.,1.22464679914735E-16,0.));
#280=DIRECTION('',(0.695022096853914,2.33640238837834E-31,0.718988376042887));
#281=DIRECTION('center_axis',(-1.22464679914735E-16,-1.,0.));
#282=DIRECTION('ref_axis',(0.,0.,1.));
#283=DIRECTION('center_axis',(1.22464679914735E-16,1.,0.));
#284=DIRECTION('ref_axis',(0.,0.,-1.));
#285=DIRECTION('',(-2.93502270962444E-18,-0.718988376042887,-0.695022096853915));
#286=DIRECTION('center_axis',(-1.,1.22464679914735E-16,0.));
#287=DIRECTION('ref_axis',(0.,0.,-1.));
#288=DIRECTION('',(-1.22464679914735E-16,-1.,0.));
#289=DIRECTION('',(0.,0.,-1.));
#290=DIRECTION('center_axis',(-1.22464679914735E-16,-1.,0.));
#291=DIRECTION('ref_axis',(0.,0.,1.));
#292=DIRECTION('',(1.,-1.22464679914735E-16,0.));
#293=DIRECTION('center_axis',(0.,0.,1.));
#294=DIRECTION('ref_axis',(-1.,1.22464679914735E-16,0.));
#295=CARTESIAN_POINT('',(0.,0.,0.));
#296=CARTESIAN_POINT('Origin',(-15.,-30.,3.));
#297=CARTESIAN_POINT('',(15.,-30.,3.));
#298=CARTESIAN_POINT('',(15.,-3.,3.));
#299=CARTESIAN_POINT('',(15.,-30.,3.));
#300=CARTESIAN_POINT('',(-15.,-3.,3.));
#301=CARTESIAN_POINT('',(-15.,-3.,3.));
#302=CARTESIAN_POINT('',(-15.,-30.,3.));
#303=CARTESIAN_POINT('',(-15.,-30.,3.));
#304=CARTESIAN_POINT('',(-15.,-30.,3.));
#305=CARTESIAN_POINT('',(-6.2,-15.,3.));
#306=CARTESIAN_POINT('',(6.20000000002687,-15.,2.99999999997403));
#307=CARTESIAN_POINT('Origin',(-1.83697019872103E-15,-15.,3.));
#308=CARTESIAN_POINT('Origin',(-1.83697019872103E-15,-15.,3.));
#309=CARTESIAN_POINT('Origin',(-15.,1.83697019872103E-15,0.));
#310=CARTESIAN_POINT('',(-15.,-3.,30.));
#311=CARTESIAN_POINT('',(-15.,-3.,3.));
#312=CARTESIAN_POINT('',(-15.,1.83697019872103E-15,30.));
#313=CARTESIAN_POINT('',(-15.,-3.,30.));
#314=CARTESIAN_POINT('',(-15.,1.83697019872103E-15,0.));
#315=CARTESIAN_POINT('',(-15.,1.83697019872103E-15,30.));
#316=CARTESIAN_POINT('',(-15.,-30.,0.));
#317=CARTESIAN_POINT('',(-15.,1.83697019872103E-15,0.));
#318=CARTESIAN_POINT('',(-15.,-30.,0.));
#319=CARTESIAN_POINT('Origin',(-15.,-30.,0.));
#320=CARTESIAN_POINT('',(15.,-30.,0.));
#321=CARTESIAN_POINT('',(15.,-30.,0.));
#322=CARTESIAN_POINT('',(-15.,-30.,0.));
#323=CARTESIAN_POINT('Origin',(-15.,-3.,3.));
#324=CARTESIAN_POINT('',(15.,-3.,30.));
#325=CARTESIAN_POINT('',(15.,-3.,3.));
#326=CARTESIAN_POINT('',(-15.,-3.,30.));
#327=CARTESIAN_POINT('',(-3.67394039744206E-16,-3.,8.8));
#328=CARTESIAN_POINT('Origin',(-3.67394039744206E-16,-3.,15.));
#329=CARTESIAN_POINT('Origin',(-15.,-3.,30.));
#330=CARTESIAN_POINT('',(15.,-1.83697019872103E-15,30.));
#331=CARTESIAN_POINT('',(15.,-3.,30.));
#332=CARTESIAN_POINT('',(-15.,1.83697019872103E-15,30.));
#333=CARTESIAN_POINT('Origin',(-1.83697019872103E-15,-15.,0.));
#334=CARTESIAN_POINT('',(-3.3,-15.,0.));
#335=CARTESIAN_POINT('',(3.3,-15.,-2.68788468836447E-48));
#336=CARTESIAN_POINT('Origin',(-1.83697019872103E-15,-15.,0.));
#337=CARTESIAN_POINT('Origin',(-1.83697019872103E-15,-15.,0.));
#338=CARTESIAN_POINT('',(3.3,-15.,0.));
#339=CARTESIAN_POINT('Origin',(-3.67394039744206E-16,-3.,15.));
#340=CARTESIAN_POINT('',(5.31105888065192E-32,4.33680868994202E-16,11.7));
#341=CARTESIAN_POINT('Origin',(5.31105888065192E-32,4.33680868994202E-16,
15.));
#342=CARTESIAN_POINT('',(3.91886975727153E-16,-3.,8.8));
#343=CARTESIAN_POINT('Origin',(15.,-1.83697019872103E-15,0.));
#344=CARTESIAN_POINT('',(15.,-1.83697019872103E-15,0.));
#345=CARTESIAN_POINT('',(15.,-1.83697019872103E-15,0.));
#346=CARTESIAN_POINT('',(15.,-1.83697019872103E-15,30.));
#347=CARTESIAN_POINT('Origin',(-15.,1.83697019872103E-15,30.));
#348=CARTESIAN_POINT('',(-15.,1.83697019872103E-15,0.));
#349=CARTESIAN_POINT('Origin',(-15.,1.83697019872103E-15,0.));
#350=UNCERTAINTY_MEASURE_WITH_UNIT(LENGTH_MEASURE(0.01),#354,
'DISTANCE_ACCURACY_VALUE',
'Maximum model space distance between geometric entities at asserted c
onnectivities');
#351=UNCERTAINTY_MEASURE_WITH_UNIT(LENGTH_MEASURE(0.01),#354,
'DISTANCE_ACCURACY_VALUE',
'Maximum model space distance between geometric entities at asserted c
onnectivities');
#352=(
GEOMETRIC_REPRESENTATION_CONTEXT(3)
GLOBAL_UNCERTAINTY_ASSIGNED_CONTEXT((#350))
GLOBAL_UNIT_ASSIGNED_CONTEXT((#354,#356,#357))
REPRESENTATION_CONTEXT('','3D')
);
#353=(
GEOMETRIC_REPRESENTATION_CONTEXT(3)
GLOBAL_UNCERTAINTY_ASSIGNED_CONTEXT((#351))
GLOBAL_UNIT_ASSIGNED_CONTEXT((#354,#356,#357))
REPRESENTATION_CONTEXT('','3D')
);
#354=(
LENGTH_UNIT()
NAMED_UNIT(*)
SI_UNIT(.MILLI.,.METRE.)
);
#355=(
LENGTH_UNIT()
NAMED_UNIT(*)
SI_UNIT(.CENTI.,.METRE.)
);
#356=(
NAMED_UNIT(*)
PLANE_ANGLE_UNIT()
SI_UNIT($,.RADIAN.)
);
#357=(
NAMED_UNIT(*)
SI_UNIT($,.STERADIAN.)
SOLID_ANGLE_UNIT()
);
#358=SHAPE_DEFINITION_REPRESENTATION(#359,#360);
#359=PRODUCT_DEFINITION_SHAPE('',$,#362);
#360=SHAPE_REPRESENTATION('',(#224),#352);
#361=PRODUCT_DEFINITION_CONTEXT('part definition',#366,'design');
#362=PRODUCT_DEFINITION('402700003',
'402700003 Stahlwinkel 30x30 schwarz',#363,#361);
#363=PRODUCT_DEFINITION_FORMATION('',$,#368);
#364=PRODUCT_RELATED_PRODUCT_CATEGORY(
'402700003 Stahlwinkel 30x30 schwarz',
'402700003 Stahlwinkel 30x30 schwarz',(#368));
#365=APPLICATION_PROTOCOL_DEFINITION('international standard',
'automotive_design',2009,#366);
#366=APPLICATION_CONTEXT(
'Core Data for Automotive Mechanical Design Process');
#367=PRODUCT_CONTEXT('part definition',#366,'mechanical');
#368=PRODUCT('402700003','402700003 Stahlwinkel 30x30 schwarz',
'Stahlwinkel 30x30, schwarz',(#367));
#369=PRESENTATION_STYLE_ASSIGNMENT((#370));
#370=SURFACE_STYLE_USAGE(.BOTH.,#373);
#371=SURFACE_STYLE_RENDERING_WITH_PROPERTIES($,#377,(#372));
#372=SURFACE_STYLE_TRANSPARENT(1.);
#373=SURFACE_SIDE_STYLE('',(#374,#371));
#374=SURFACE_STYLE_FILL_AREA(#375);
#375=FILL_AREA_STYLE('',(#376));
#376=FILL_AREA_STYLE_COLOUR('',#377);
#377=COLOUR_RGB('',0.,0.,0.);
ENDSEC;
END-ISO-10303-21;
