ISO-10303-21;
HEADER;
/* Generated by software containing ST-Developer
 * from STEP Tools, Inc. (www.steptools.com) 
 */

FILE_DESCRIPTION(
/* description */ ('Trapezteller 60 mit Anti-Slip-Platte'),
/* implementation_level */ '2;1');

FILE_NAME(
/* name */ 
'T:\\Produktinformationen\\MT\\I40\\3D-Files I40\\Trapezteller f\X\FCr
 Gelenkstellf\X\FC\X\DFe\\203600201 Trapezteller 60 mit Anti-Slip-Plat
te.stp',
/* time_stamp */ '2020-08-19T16:20:33+02:00',
/* author */ ('wheldmann'),
/* organization */ (''),
/* preprocessor_version */ 'ST-DEVELOPER v17.2',
/* originating_system */ 'Autodesk Inventor 2019',
/* authorisation */ ' ');

FILE_SCHEMA (('AUTOMOTIVE_DESIGN { 1 0 10303 214 3 1 1 }'));
ENDSEC;

DATA;
#10=MECHANICAL_DESIGN_GEOMETRIC_PRESENTATION_REPRESENTATION('',(#14,#15),
#395);
#11=SHAPE_REPRESENTATION_RELATIONSHIP('SRR','None',#402,#12);
#12=ADVANCED_BREP_SHAPE_REPRESENTATION('',(#13),#394);
#13=MANIFOLD_SOLID_BREP('Volumenk\X\F6rper2',#202);
#14=STYLED_ITEM('',(#412),#201);
#15=STYLED_ITEM('',(#411),#13);
#16=SPHERICAL_SURFACE('',#240,7.6);
#17=TOROIDAL_SURFACE('',#233,27.3582995455,2.);
#18=TOROIDAL_SURFACE('',#253,15.3811595201,2.);
#19=CONICAL_SURFACE('',#230,29.3570811996,0.034906585);
#20=CONICAL_SURFACE('',#237,16.7953730825,0.7853981634);
#21=CONICAL_SURFACE('',#245,7.6,0.0944549354);
#22=CONICAL_SURFACE('',#248,7.42,0.2825549525);
#23=FACE_BOUND('',#41,.T.);
#24=FACE_BOUND('',#49,.T.);
#25=PLANE('',#227);
#26=PLANE('',#250);
#27=PLANE('',#255);
#28=FACE_OUTER_BOUND('',#39,.T.);
#29=FACE_OUTER_BOUND('',#40,.T.);
#30=FACE_OUTER_BOUND('',#42,.T.);
#31=FACE_OUTER_BOUND('',#43,.T.);
#32=FACE_OUTER_BOUND('',#44,.T.);
#33=FACE_OUTER_BOUND('',#45,.T.);
#34=FACE_OUTER_BOUND('',#46,.T.);
#35=FACE_OUTER_BOUND('',#47,.T.);
#36=FACE_OUTER_BOUND('',#48,.T.);
#37=FACE_OUTER_BOUND('',#50,.T.);
#38=FACE_OUTER_BOUND('',#51,.T.);
#39=EDGE_LOOP('',(#134,#135,#136,#137,#138,#139));
#40=EDGE_LOOP('',(#140,#141));
#41=EDGE_LOOP('',(#142,#143));
#42=EDGE_LOOP('',(#144,#145,#146,#147,#148,#149));
#43=EDGE_LOOP('',(#150,#151,#152,#153,#154,#155));
#44=EDGE_LOOP('',(#156,#157,#158,#159,#160,#161));
#45=EDGE_LOOP('',(#162,#163,#164,#165,#166));
#46=EDGE_LOOP('',(#167,#168,#169,#170,#171,#172,#173));
#47=EDGE_LOOP('',(#174,#175,#176,#177,#178));
#48=EDGE_LOOP('',(#179,#180));
#49=EDGE_LOOP('',(#181));
#50=EDGE_LOOP('',(#182,#183,#184,#185,#186,#187));
#51=EDGE_LOOP('',(#188,#189));
#52=LINE('',#337,#57);
#53=LINE('',#349,#58);
#54=LINE('',#361,#59);
#55=LINE('',#379,#60);
#56=LINE('',#382,#61);
#57=VECTOR('',#262,25.);
#58=VECTOR('',#277,29.3570811996);
#59=VECTOR('',#292,16.7953730825);
#60=VECTOR('',#313,7.6);
#61=VECTOR('',#316,7.42);
#62=CIRCLE('',#223,25.);
#63=CIRCLE('',#224,25.);
#64=CIRCLE('',#225,25.);
#65=CIRCLE('',#226,25.);
#66=CIRCLE('',#228,29.5);
#67=CIRCLE('',#229,29.5);
#68=CIRCLE('',#231,29.3570811996);
#69=CIRCLE('',#232,29.3570811996);
#70=CIRCLE('',#234,2.);
#71=CIRCLE('',#235,28.7725131079);
#72=CIRCLE('',#236,28.7725131079);
#73=CIRCLE('',#238,16.7953730825);
#74=CIRCLE('',#239,16.7953730825);
#75=CIRCLE('',#241,7.6);
#76=CIRCLE('',#242,7.6);
#77=CIRCLE('',#243,7.6);
#78=CIRCLE('',#244,7.6);
#79=CIRCLE('',#246,7.42);
#80=CIRCLE('',#247,7.42);
#81=CIRCLE('',#249,7.6);
#82=CIRCLE('',#251,15.3811595201);
#83=CIRCLE('',#252,15.3811595201);
#84=CIRCLE('',#254,2.);
#85=VERTEX_POINT('',#333);
#86=VERTEX_POINT('',#334);
#87=VERTEX_POINT('',#336);
#88=VERTEX_POINT('',#338);
#89=VERTEX_POINT('',#343);
#90=VERTEX_POINT('',#344);
#91=VERTEX_POINT('',#348);
#92=VERTEX_POINT('',#350);
#93=VERTEX_POINT('',#354);
#94=VERTEX_POINT('',#356);
#95=VERTEX_POINT('',#360);
#96=VERTEX_POINT('',#362);
#97=VERTEX_POINT('',#366);
#98=VERTEX_POINT('',#367);
#99=VERTEX_POINT('',#369);
#100=VERTEX_POINT('',#372);
#101=VERTEX_POINT('',#375);
#102=VERTEX_POINT('',#376);
#103=VERTEX_POINT('',#381);
#104=VERTEX_POINT('',#385);
#105=VERTEX_POINT('',#386);
#106=EDGE_CURVE('',#85,#86,#62,.T.);
#107=EDGE_CURVE('',#86,#87,#52,.T.);
#108=EDGE_CURVE('',#88,#87,#63,.T.);
#109=EDGE_CURVE('',#87,#88,#64,.T.);
#110=EDGE_CURVE('',#86,#85,#65,.T.);
#111=EDGE_CURVE('',#89,#90,#66,.T.);
#112=EDGE_CURVE('',#90,#89,#67,.T.);
#113=EDGE_CURVE('',#90,#91,#53,.T.);
#114=EDGE_CURVE('',#91,#92,#68,.T.);
#115=EDGE_CURVE('',#92,#91,#69,.T.);
#116=EDGE_CURVE('',#91,#93,#70,.T.);
#117=EDGE_CURVE('',#93,#94,#71,.T.);
#118=EDGE_CURVE('',#94,#93,#72,.T.);
#119=EDGE_CURVE('',#93,#95,#54,.T.);
#120=EDGE_CURVE('',#95,#96,#73,.T.);
#121=EDGE_CURVE('',#96,#95,#74,.T.);
#122=EDGE_CURVE('',#97,#98,#75,.T.);
#123=EDGE_CURVE('',#99,#97,#76,.T.);
#124=EDGE_CURVE('',#98,#99,#77,.T.);
#125=EDGE_CURVE('',#98,#100,#78,.T.);
#126=EDGE_CURVE('',#101,#102,#79,.T.);
#127=EDGE_CURVE('',#102,#101,#80,.T.);
#128=EDGE_CURVE('',#102,#99,#55,.T.);
#129=EDGE_CURVE('',#101,#103,#56,.T.);
#130=EDGE_CURVE('',#103,#103,#81,.T.);
#131=EDGE_CURVE('',#104,#105,#82,.T.);
#132=EDGE_CURVE('',#105,#104,#83,.T.);
#133=EDGE_CURVE('',#95,#105,#84,.T.);
#134=ORIENTED_EDGE('',*,*,#106,.T.);
#135=ORIENTED_EDGE('',*,*,#107,.T.);
#136=ORIENTED_EDGE('',*,*,#108,.F.);
#137=ORIENTED_EDGE('',*,*,#109,.F.);
#138=ORIENTED_EDGE('',*,*,#107,.F.);
#139=ORIENTED_EDGE('',*,*,#110,.T.);
#140=ORIENTED_EDGE('',*,*,#111,.T.);
#141=ORIENTED_EDGE('',*,*,#112,.T.);
#142=ORIENTED_EDGE('',*,*,#106,.F.);
#143=ORIENTED_EDGE('',*,*,#110,.F.);
#144=ORIENTED_EDGE('',*,*,#111,.F.);
#145=ORIENTED_EDGE('',*,*,#112,.F.);
#146=ORIENTED_EDGE('',*,*,#113,.T.);
#147=ORIENTED_EDGE('',*,*,#114,.T.);
#148=ORIENTED_EDGE('',*,*,#115,.T.);
#149=ORIENTED_EDGE('',*,*,#113,.F.);
#150=ORIENTED_EDGE('',*,*,#115,.F.);
#151=ORIENTED_EDGE('',*,*,#114,.F.);
#152=ORIENTED_EDGE('',*,*,#116,.T.);
#153=ORIENTED_EDGE('',*,*,#117,.T.);
#154=ORIENTED_EDGE('',*,*,#118,.T.);
#155=ORIENTED_EDGE('',*,*,#116,.F.);
#156=ORIENTED_EDGE('',*,*,#118,.F.);
#157=ORIENTED_EDGE('',*,*,#117,.F.);
#158=ORIENTED_EDGE('',*,*,#119,.T.);
#159=ORIENTED_EDGE('',*,*,#120,.T.);
#160=ORIENTED_EDGE('',*,*,#121,.T.);
#161=ORIENTED_EDGE('',*,*,#119,.F.);
#162=ORIENTED_EDGE('',*,*,#122,.F.);
#163=ORIENTED_EDGE('',*,*,#123,.F.);
#164=ORIENTED_EDGE('',*,*,#124,.F.);
#165=ORIENTED_EDGE('',*,*,#125,.T.);
#166=ORIENTED_EDGE('',*,*,#125,.F.);
#167=ORIENTED_EDGE('',*,*,#126,.F.);
#168=ORIENTED_EDGE('',*,*,#127,.F.);
#169=ORIENTED_EDGE('',*,*,#128,.T.);
#170=ORIENTED_EDGE('',*,*,#123,.T.);
#171=ORIENTED_EDGE('',*,*,#122,.T.);
#172=ORIENTED_EDGE('',*,*,#124,.T.);
#173=ORIENTED_EDGE('',*,*,#128,.F.);
#174=ORIENTED_EDGE('',*,*,#126,.T.);
#175=ORIENTED_EDGE('',*,*,#127,.T.);
#176=ORIENTED_EDGE('',*,*,#129,.T.);
#177=ORIENTED_EDGE('',*,*,#130,.F.);
#178=ORIENTED_EDGE('',*,*,#129,.F.);
#179=ORIENTED_EDGE('',*,*,#131,.F.);
#180=ORIENTED_EDGE('',*,*,#132,.F.);
#181=ORIENTED_EDGE('',*,*,#130,.T.);
#182=ORIENTED_EDGE('',*,*,#121,.F.);
#183=ORIENTED_EDGE('',*,*,#120,.F.);
#184=ORIENTED_EDGE('',*,*,#133,.T.);
#185=ORIENTED_EDGE('',*,*,#132,.T.);
#186=ORIENTED_EDGE('',*,*,#131,.T.);
#187=ORIENTED_EDGE('',*,*,#133,.F.);
#188=ORIENTED_EDGE('',*,*,#108,.T.);
#189=ORIENTED_EDGE('',*,*,#109,.T.);
#190=CYLINDRICAL_SURFACE('',#222,25.);
#191=ADVANCED_FACE('',(#28),#190,.T.);
#192=ADVANCED_FACE('',(#29,#23),#25,.F.);
#193=ADVANCED_FACE('',(#30),#19,.T.);
#194=ADVANCED_FACE('',(#31),#17,.T.);
#195=ADVANCED_FACE('',(#32),#20,.T.);
#196=ADVANCED_FACE('',(#33),#16,.F.);
#197=ADVANCED_FACE('',(#34),#21,.F.);
#198=ADVANCED_FACE('',(#35),#22,.F.);
#199=ADVANCED_FACE('',(#36,#24),#26,.F.);
#200=ADVANCED_FACE('',(#37),#18,.T.);
#201=ADVANCED_FACE('',(#38),#27,.F.);
#202=CLOSED_SHELL('',(#191,#192,#193,#194,#195,#196,#197,#198,#199,#200,
#201));
#203=DERIVED_UNIT_ELEMENT(#205,1.);
#204=DERIVED_UNIT_ELEMENT(#397,3.);
#205=(
MASS_UNIT()
NAMED_UNIT(*)
SI_UNIT($,.GRAM.)
);
#206=DERIVED_UNIT((#203,#204));
#207=MEASURE_REPRESENTATION_ITEM('density measure',
POSITIVE_RATIO_MEASURE(1.),#206);
#208=PROPERTY_DEFINITION_REPRESENTATION(#213,#210);
#209=PROPERTY_DEFINITION_REPRESENTATION(#214,#211);
#210=REPRESENTATION('material name',(#212),#394);
#211=REPRESENTATION('density',(#207),#394);
#212=DESCRIPTIVE_REPRESENTATION_ITEM('Standard','Standard');
#213=PROPERTY_DEFINITION('material property','material name',#404);
#214=PROPERTY_DEFINITION('material property','density of part',#404);
#215=DATE_TIME_ROLE('creation_date');
#216=APPLIED_DATE_AND_TIME_ASSIGNMENT(#217,#215,(#404));
#217=DATE_AND_TIME(#218,#219);
#218=CALENDAR_DATE(2020,19,8);
#219=LOCAL_TIME(15,35,20.,#220);
#220=COORDINATED_UNIVERSAL_TIME_OFFSET(0,0,.BEHIND.);
#221=AXIS2_PLACEMENT_3D('placement',#331,#256,#257);
#222=AXIS2_PLACEMENT_3D('',#332,#258,#259);
#223=AXIS2_PLACEMENT_3D('',#335,#260,#261);
#224=AXIS2_PLACEMENT_3D('',#339,#263,#264);
#225=AXIS2_PLACEMENT_3D('',#340,#265,#266);
#226=AXIS2_PLACEMENT_3D('',#341,#267,#268);
#227=AXIS2_PLACEMENT_3D('',#342,#269,#270);
#228=AXIS2_PLACEMENT_3D('',#345,#271,#272);
#229=AXIS2_PLACEMENT_3D('',#346,#273,#274);
#230=AXIS2_PLACEMENT_3D('',#347,#275,#276);
#231=AXIS2_PLACEMENT_3D('',#351,#278,#279);
#232=AXIS2_PLACEMENT_3D('',#352,#280,#281);
#233=AXIS2_PLACEMENT_3D('',#353,#282,#283);
#234=AXIS2_PLACEMENT_3D('',#355,#284,#285);
#235=AXIS2_PLACEMENT_3D('',#357,#286,#287);
#236=AXIS2_PLACEMENT_3D('',#358,#288,#289);
#237=AXIS2_PLACEMENT_3D('',#359,#290,#291);
#238=AXIS2_PLACEMENT_3D('',#363,#293,#294);
#239=AXIS2_PLACEMENT_3D('',#364,#295,#296);
#240=AXIS2_PLACEMENT_3D('',#365,#297,#298);
#241=AXIS2_PLACEMENT_3D('',#368,#299,#300);
#242=AXIS2_PLACEMENT_3D('',#370,#301,#302);
#243=AXIS2_PLACEMENT_3D('',#371,#303,#304);
#244=AXIS2_PLACEMENT_3D('',#373,#305,#306);
#245=AXIS2_PLACEMENT_3D('',#374,#307,#308);
#246=AXIS2_PLACEMENT_3D('',#377,#309,#310);
#247=AXIS2_PLACEMENT_3D('',#378,#311,#312);
#248=AXIS2_PLACEMENT_3D('',#380,#314,#315);
#249=AXIS2_PLACEMENT_3D('',#383,#317,#318);
#250=AXIS2_PLACEMENT_3D('',#384,#319,#320);
#251=AXIS2_PLACEMENT_3D('',#387,#321,#322);
#252=AXIS2_PLACEMENT_3D('',#388,#323,#324);
#253=AXIS2_PLACEMENT_3D('',#389,#325,#326);
#254=AXIS2_PLACEMENT_3D('',#390,#327,#328);
#255=AXIS2_PLACEMENT_3D('',#391,#329,#330);
#256=DIRECTION('axis',(0.,0.,1.));
#257=DIRECTION('refdir',(1.,0.,0.));
#258=DIRECTION('center_axis',(0.,-2.22044604925031E-16,1.));
#259=DIRECTION('ref_axis',(0.,1.,2.22044604925031E-16));
#260=DIRECTION('center_axis',(0.,2.22044604925031E-16,-1.));
#261=DIRECTION('ref_axis',(0.,1.,2.22044604925031E-16));
#262=DIRECTION('',(0.,2.22044604925031E-16,-1.));
#263=DIRECTION('center_axis',(0.,2.22044604925031E-16,-1.));
#264=DIRECTION('ref_axis',(0.,1.,2.22044604925031E-16));
#265=DIRECTION('center_axis',(0.,2.22044604925031E-16,-1.));
#266=DIRECTION('ref_axis',(0.,1.,2.22044604925031E-16));
#267=DIRECTION('center_axis',(0.,2.22044604925031E-16,-1.));
#268=DIRECTION('ref_axis',(0.,1.,2.22044604925031E-16));
#269=DIRECTION('center_axis',(0.,-2.22044604925031E-16,1.));
#270=DIRECTION('ref_axis',(0.,-1.,-2.22044604925031E-16));
#271=DIRECTION('center_axis',(0.,2.22044604925031E-16,-1.));
#272=DIRECTION('ref_axis',(0.,1.,2.22044604925031E-16));
#273=DIRECTION('center_axis',(0.,2.22044604925031E-16,-1.));
#274=DIRECTION('ref_axis',(0.,1.,2.22044604925031E-16));
#275=DIRECTION('center_axis',(0.,2.22044604925031E-16,-1.));
#276=DIRECTION('ref_axis',(0.,1.,2.22044604925031E-16));
#277=DIRECTION('',(4.27395568797542E-18,0.0348994966626385,0.999390827020488));
#278=DIRECTION('center_axis',(0.,2.22044604925031E-16,-1.));
#279=DIRECTION('ref_axis',(0.,1.,2.22044604925031E-16));
#280=DIRECTION('center_axis',(0.,2.22044604925031E-16,-1.));
#281=DIRECTION('ref_axis',(0.,1.,2.22044604925031E-16));
#282=DIRECTION('center_axis',(0.,2.22044604925031E-16,-1.));
#283=DIRECTION('ref_axis',(0.,1.,2.11771425257968E-16));
#284=DIRECTION('center_axis',(-1.,1.22464679914735E-16,2.71926214689378E-32));
#285=DIRECTION('ref_axis',(-1.22464679914735E-16,-1.,-2.26897955633537E-16));
#286=DIRECTION('center_axis',(0.,2.22044604925031E-16,-1.));
#287=DIRECTION('ref_axis',(0.,1.,2.22044604925031E-16));
#288=DIRECTION('center_axis',(0.,2.22044604925031E-16,-1.));
#289=DIRECTION('ref_axis',(0.,1.,2.22044604925031E-16));
#290=DIRECTION('center_axis',(0.,2.22044604925031E-16,-1.));
#291=DIRECTION('ref_axis',(0.,1.,2.22044604925031E-16));
#292=DIRECTION('',(8.65956056237703E-17,0.707106781188352,0.707106781184743));
#293=DIRECTION('center_axis',(0.,2.22044604925031E-16,-1.));
#294=DIRECTION('ref_axis',(0.,1.,2.22044604925031E-16));
#295=DIRECTION('center_axis',(0.,2.22044604925031E-16,-1.));
#296=DIRECTION('ref_axis',(0.,1.,2.22044604925031E-16));
#297=DIRECTION('center_axis',(-1.22464679914735E-16,2.22044604925031E-16,
-1.));
#298=DIRECTION('ref_axis',(-1.,0.,0.));
#299=DIRECTION('center_axis',(0.,2.22044604925031E-16,-1.));
#300=DIRECTION('ref_axis',(0.,1.,2.22044604925031E-16));
#301=DIRECTION('center_axis',(0.,2.22044604925031E-16,-1.));
#302=DIRECTION('ref_axis',(0.,1.,2.22044604925031E-16));
#303=DIRECTION('center_axis',(0.,2.22044604925031E-16,-1.));
#304=DIRECTION('ref_axis',(0.,1.,2.22044604925031E-16));
#305=DIRECTION('center_axis',(1.22464679914735E-16,1.,2.22044604925031E-16));
#306=DIRECTION('ref_axis',(1.,-1.22464679914735E-16,0.));
#307=DIRECTION('center_axis',(0.,2.22044604925031E-16,-1.));
#308=DIRECTION('ref_axis',(0.,1.,2.22044604925031E-16));
#309=DIRECTION('center_axis',(0.,2.22044604925031E-16,-1.));
#310=DIRECTION('ref_axis',(0.,1.,2.22044604925031E-16));
#311=DIRECTION('center_axis',(0.,2.22044604925031E-16,-1.));
#312=DIRECTION('ref_axis',(0.,1.,2.22044604925031E-16));
#313=DIRECTION('',(-1.15502008984876E-17,-0.0943145477253467,-0.995542448159476));
#314=DIRECTION('center_axis',(0.,-2.22044604925031E-16,1.));
#315=DIRECTION('ref_axis',(0.,-1.,-2.22044604925031E-16));
#316=DIRECTION('',(-3.4144401274556E-17,0.278810194893162,0.960346226745145));
#317=DIRECTION('center_axis',(0.,2.22044604925031E-16,-1.));
#318=DIRECTION('ref_axis',(0.,1.,2.22044604925031E-16));
#319=DIRECTION('center_axis',(0.,2.22044604925031E-16,-1.));
#320=DIRECTION('ref_axis',(0.,1.,2.22044604925031E-16));
#321=DIRECTION('center_axis',(0.,2.22044604925031E-16,-1.));
#322=DIRECTION('ref_axis',(0.,1.,2.22044604925031E-16));
#323=DIRECTION('center_axis',(0.,2.22044604925031E-16,-1.));
#324=DIRECTION('ref_axis',(0.,1.,2.22044604925031E-16));
#325=DIRECTION('center_axis',(0.,2.22044604925031E-16,-1.));
#326=DIRECTION('ref_axis',(0.,1.,2.0440026884812E-16));
#327=DIRECTION('center_axis',(-1.,1.22464679914735E-16,2.71926214689378E-32));
#328=DIRECTION('ref_axis',(-1.22464679914735E-16,-1.,-2.5550033606015E-16));
#329=DIRECTION('center_axis',(0.,-2.22044604925031E-16,1.));
#330=DIRECTION('ref_axis',(0.,-1.,-2.22044604925031E-16));
#331=CARTESIAN_POINT('',(0.,0.,0.));
#332=CARTESIAN_POINT('Origin',(0.,0.,0.));
#333=CARTESIAN_POINT('',(0.,25.,2.00000000000001));
#334=CARTESIAN_POINT('',(3.06161699786838E-15,-25.,1.99999999999999));
#335=CARTESIAN_POINT('Origin',(0.,-4.44089209850063E-16,2.));
#336=CARTESIAN_POINT('',(3.06161699786838E-15,-25.,-5.55111512312578E-15));
#337=CARTESIAN_POINT('',(3.06161699786838E-15,-25.,-5.55111512312578E-15));
#338=CARTESIAN_POINT('',(0.,25.,5.55111512312578E-15));
#339=CARTESIAN_POINT('Origin',(0.,0.,0.));
#340=CARTESIAN_POINT('Origin',(0.,0.,0.));
#341=CARTESIAN_POINT('Origin',(0.,-4.44089209850063E-16,2.));
#342=CARTESIAN_POINT('Origin',(29.5,-4.44089209850063E-16,2.));
#343=CARTESIAN_POINT('',(0.,29.5,2.00000000000001));
#344=CARTESIAN_POINT('',(-3.61270805746839E-15,-29.4999999998668,1.99999999999534));
#345=CARTESIAN_POINT('Origin',(0.,-4.44089209850063E-16,2.));
#346=CARTESIAN_POINT('Origin',(0.,-4.44089209850063E-16,2.));
#347=CARTESIAN_POINT('Origin',(0.,-1.35284205349415E-15,6.09265896800739));
#348=CARTESIAN_POINT('',(-3.59520555233991E-15,-29.3570811996,6.09265896800738));
#349=CARTESIAN_POINT('',(-3.59520555233991E-15,-29.3570811996,6.09265896800738));
#350=CARTESIAN_POINT('',(0.,29.3570811995699,6.0926589680074));
#351=CARTESIAN_POINT('Origin',(0.,-1.35284205349415E-15,6.09265896800739));
#352=CARTESIAN_POINT('Origin',(0.,-1.35284205349415E-15,6.09265896800739));
#353=CARTESIAN_POINT('Origin',(0.,-1.33734356357937E-15,6.0228599746024));
#354=CARTESIAN_POINT('',(-3.5236166081015E-15,-28.7725131079,7.43707353697547));
#355=CARTESIAN_POINT('Origin',(-3.35042539685111E-15,-27.3582995455,6.02285997460239));
#356=CARTESIAN_POINT('',(0.,28.7725131079048,7.43707353697549));
#357=CARTESIAN_POINT('Origin',(0.,-1.65136205531613E-15,7.43707353697548));
#358=CARTESIAN_POINT('Origin',(0.,-1.65136205531613E-15,7.43707353697548));
#359=CARTESIAN_POINT('Origin',(0.,-4.31082138038732E-15,19.4142135623731));
#360=CARTESIAN_POINT('',(-2.05683998859692E-15,-16.7953730825,19.4142135623731));
#361=CARTESIAN_POINT('',(-2.05683998859692E-15,-16.7953730825,19.4142135623731));
#362=CARTESIAN_POINT('',(0.,16.7953730825072,19.4142135623731));
#363=CARTESIAN_POINT('Origin',(0.,-4.31082138038732E-15,19.4142135623731));
#364=CARTESIAN_POINT('Origin',(0.,-4.31082138038732E-15,19.4142135623731));
#365=CARTESIAN_POINT('Origin',(-1.73472347597681E-15,-3.88133969408955E-15,
17.48));
#366=CARTESIAN_POINT('',(0.,7.6,17.48));
#367=CARTESIAN_POINT('',(7.6,-4.81207126144154E-15,17.48));
#368=CARTESIAN_POINT('Origin',(0.,-3.88133969408955E-15,17.48));
#369=CARTESIAN_POINT('',(-9.30731567351989E-16,-7.6,17.48));
#370=CARTESIAN_POINT('Origin',(0.,-3.88133969408955E-15,17.48));
#371=CARTESIAN_POINT('Origin',(0.,-3.88133969408955E-15,17.48));
#372=CARTESIAN_POINT('',(-1.26935769230082E-15,-2.19380069665931E-15,9.88));
#373=CARTESIAN_POINT('Origin',(-1.73472347597681E-15,-3.88133969408955E-15,
17.48));
#374=CARTESIAN_POINT('Origin',(0.,-3.88133969408955E-15,17.48));
#375=CARTESIAN_POINT('',(0.,7.42,19.38));
#376=CARTESIAN_POINT('',(-9.08687924966184E-16,-7.41999999999059,19.3799999999991));
#377=CARTESIAN_POINT('Origin',(0.,-4.30322444344711E-15,19.38));
#378=CARTESIAN_POINT('Origin',(0.,-4.30322444344711E-15,19.38));
#379=CARTESIAN_POINT('',(-9.30731567351989E-16,-7.6,17.48));
#380=CARTESIAN_POINT('Origin',(0.,-4.30322444344711E-15,19.38));
#381=CARTESIAN_POINT('',(0.,7.6,20.));
#382=CARTESIAN_POINT('',(-9.08687924967336E-16,7.42,19.38));
#383=CARTESIAN_POINT('Origin',(0.,-4.44089209850063E-15,20.));
#384=CARTESIAN_POINT('Origin',(7.6,-4.44089209850063E-15,20.));
#385=CARTESIAN_POINT('',(0.,15.3811595201341,20.));
#386=CARTESIAN_POINT('',(-1.88364877734653E-15,-15.3811595201,20.));
#387=CARTESIAN_POINT('Origin',(0.,-4.44089209850063E-15,20.));
#388=CARTESIAN_POINT('Origin',(0.,-4.44089209850063E-15,20.));
#389=CARTESIAN_POINT('Origin',(0.,-3.99680288865056E-15,18.));
#390=CARTESIAN_POINT('Origin',(-1.88364877734653E-15,-15.3811595201,18.));
#391=CARTESIAN_POINT('Origin',(25.,0.,0.));
#392=UNCERTAINTY_MEASURE_WITH_UNIT(LENGTH_MEASURE(0.01),#396,
'DISTANCE_ACCURACY_VALUE',
'Maximum model space distance between geometric entities at asserted c
onnectivities');
#393=UNCERTAINTY_MEASURE_WITH_UNIT(LENGTH_MEASURE(0.01),#396,
'DISTANCE_ACCURACY_VALUE',
'Maximum model space distance between geometric entities at asserted c
onnectivities');
#394=(
GEOMETRIC_REPRESENTATION_CONTEXT(3)
GLOBAL_UNCERTAINTY_ASSIGNED_CONTEXT((#392))
GLOBAL_UNIT_ASSIGNED_CONTEXT((#396,#398,#399))
REPRESENTATION_CONTEXT('','3D')
);
#395=(
GEOMETRIC_REPRESENTATION_CONTEXT(3)
GLOBAL_UNCERTAINTY_ASSIGNED_CONTEXT((#393))
GLOBAL_UNIT_ASSIGNED_CONTEXT((#396,#398,#399))
REPRESENTATION_CONTEXT('','3D')
);
#396=(
LENGTH_UNIT()
NAMED_UNIT(*)
SI_UNIT(.MILLI.,.METRE.)
);
#397=(
LENGTH_UNIT()
NAMED_UNIT(*)
SI_UNIT(.CENTI.,.METRE.)
);
#398=(
NAMED_UNIT(*)
PLANE_ANGLE_UNIT()
SI_UNIT($,.RADIAN.)
);
#399=(
NAMED_UNIT(*)
SI_UNIT($,.STERADIAN.)
SOLID_ANGLE_UNIT()
);
#400=SHAPE_DEFINITION_REPRESENTATION(#401,#402);
#401=PRODUCT_DEFINITION_SHAPE('',$,#404);
#402=SHAPE_REPRESENTATION('',(#221),#394);
#403=PRODUCT_DEFINITION_CONTEXT('part definition',#408,'design');
#404=PRODUCT_DEFINITION('203600201',
'203600201 Trapezteller 60 mit Anti-Slip-Platte',#405,#403);
#405=PRODUCT_DEFINITION_FORMATION('',$,#410);
#406=PRODUCT_RELATED_PRODUCT_CATEGORY(
'203600201 Trapezteller 60 mit Anti-Slip-Platte',
'203600201 Trapezteller 60 mit Anti-Slip-Platte',(#410));
#407=APPLICATION_PROTOCOL_DEFINITION('international standard',
'automotive_design',2009,#408);
#408=APPLICATION_CONTEXT(
'Core Data for Automotive Mechanical Design Process');
#409=PRODUCT_CONTEXT('part definition',#408,'mechanical');
#410=PRODUCT('203600201',
'203600201 Trapezteller 60 mit Anti-Slip-Platte',
'Trapezteller 60 mit Anti-Slip-Platte',(#409));
#411=PRESENTATION_STYLE_ASSIGNMENT((#413));
#412=PRESENTATION_STYLE_ASSIGNMENT((#414));
#413=SURFACE_STYLE_USAGE(.BOTH.,#419);
#414=SURFACE_STYLE_USAGE(.BOTH.,#420);
#415=SURFACE_STYLE_RENDERING_WITH_PROPERTIES($,#427,(#417));
#416=SURFACE_STYLE_RENDERING_WITH_PROPERTIES($,#428,(#418));
#417=SURFACE_STYLE_TRANSPARENT(0.);
#418=SURFACE_STYLE_TRANSPARENT(0.);
#419=SURFACE_SIDE_STYLE('',(#421,#415));
#420=SURFACE_SIDE_STYLE('',(#422,#416));
#421=SURFACE_STYLE_FILL_AREA(#423);
#422=SURFACE_STYLE_FILL_AREA(#424);
#423=FILL_AREA_STYLE('',(#425));
#424=FILL_AREA_STYLE('',(#426));
#425=FILL_AREA_STYLE_COLOUR('',#427);
#426=FILL_AREA_STYLE_COLOUR('',#428);
#427=COLOUR_RGB('',0.,0.,0.);
#428=COLOUR_RGB('',0.0549019607843137,0.0549019607843137,0.0627450980392157);
ENDSEC;
END-ISO-10303-21;
