ISO-10303-21;
HEADER;
/* Generated by software containing ST-Developer
 * from STEP Tools, Inc. (www.steptools.com) 
 */

FILE_DESCRIPTION(
/* description */ ('Teller 60 f\X\FCr feste Stellf\X\FC\X\DFe'),
/* implementation_level */ '2;1');

FILE_NAME(
/* name */ 
'T:\\Produktinformationen\\MT\\I40\\3D-Files I40\\Teller f\X\FCr feste
 Stellf\X\FCsse\\203600402 Teller 60 f\X\FCr feste Stellf\X\FC\X\DFe.s
tp',
/* time_stamp */ '2020-02-04T10:52:54+01:00',
/* author */ ('wheldmann'),
/* organization */ (''),
/* preprocessor_version */ 'ST-DEVELOPER v17.2',
/* originating_system */ 'Autodesk Inventor 2019',
/* authorisation */ ' ');

FILE_SCHEMA (('AUTOMOTIVE_DESIGN { 1 0 10303 214 3 1 1 }'));
ENDSEC;

DATA;
#10=MECHANICAL_DESIGN_GEOMETRIC_PRESENTATION_REPRESENTATION('',(#13),#522);
#11=SHAPE_REPRESENTATION_RELATIONSHIP('SRR','None',#529,#12);
#12=ADVANCED_BREP_SHAPE_REPRESENTATION('',(#14),#521);
#13=STYLED_ITEM('',(#538),#14);
#14=MANIFOLD_SOLID_BREP('Volumenk\X\F6rper2',#257);
#15=SPHERICAL_SURFACE('',#318,20.);
#16=(
BOUNDED_SURFACE()
B_SPLINE_SURFACE(2,2,((#483,#484,#485,#486,#487,#488,#489,#490,#491),(#492,
#493,#494,#495,#496,#497,#498,#499,#500),(#501,#502,#503,#504,#505,#506,
#507,#508,#509)),.UNSPECIFIED.,.F.,.T.,.F.)
B_SPLINE_SURFACE_WITH_KNOTS((3,3),(3,2,2,2,3),(-1.19183779912885,-0.87760323894086),
(-3.14159265358979,-1.5707963267949,0.,1.5707963267949,3.14159265358979),
 .UNSPECIFIED.)
GEOMETRIC_REPRESENTATION_ITEM()
RATIONAL_B_SPLINE_SURFACE(((1.,0.707106781186548,1.,0.707106781186548,1.,
0.707106781186548,1.,0.707106781186548,1.),(0.987682450542048,0.698396958437229,
0.987682450542048,0.698396958437229,0.987682450542048,0.698396958437229,
0.987682450542048,0.698396958437229,0.987682450542048),(1.,0.707106781186548,
1.,0.707106781186548,1.,0.707106781186548,1.,0.707106781186548,1.)))
REPRESENTATION_ITEM('')
SURFACE()
);
#17=TOROIDAL_SURFACE('',#309,24.0816461652,5.);
#18=CYLINDRICAL_SURFACE('',#294,14.75);
#19=CYLINDRICAL_SURFACE('',#300,25.5);
#20=LINE('',#426,#26);
#21=LINE('',#434,#27);
#22=LINE('',#438,#28);
#23=LINE('',#451,#29);
#24=LINE('',#462,#30);
#25=LINE('',#471,#31);
#26=VECTOR('',#334,6.4975702861);
#27=VECTOR('',#343,7.04);
#28=VECTOR('',#348,9.8049669231);
#29=VECTOR('',#363,14.75);
#30=VECTOR('',#376,25.5);
#31=VECTOR('',#387,29.5);
#32=CONICAL_SURFACE('',#282,6.4975702861,0.0872664626);
#33=CONICAL_SURFACE('',#285,7.04,1.2205703007);
#34=CONICAL_SURFACE('',#288,9.8049669231,0.1745329252);
#35=CONICAL_SURFACE('',#306,29.5,0.0872664626);
#36=FACE_BOUND('',#54,.T.);
#37=FACE_BOUND('',#59,.T.);
#38=FACE_BOUND('',#62,.T.);
#39=FACE_BOUND('',#65,.T.);
#40=FACE_OUTER_BOUND('',#53,.T.);
#41=FACE_OUTER_BOUND('',#55,.T.);
#42=FACE_OUTER_BOUND('',#56,.T.);
#43=FACE_OUTER_BOUND('',#57,.T.);
#44=FACE_OUTER_BOUND('',#58,.T.);
#45=FACE_OUTER_BOUND('',#60,.T.);
#46=FACE_OUTER_BOUND('',#61,.T.);
#47=FACE_OUTER_BOUND('',#63,.T.);
#48=FACE_OUTER_BOUND('',#64,.T.);
#49=FACE_OUTER_BOUND('',#66,.T.);
#50=FACE_OUTER_BOUND('',#67,.T.);
#51=FACE_OUTER_BOUND('',#68,.T.);
#52=FACE_OUTER_BOUND('',#69,.T.);
#53=EDGE_LOOP('',(#166,#167));
#54=EDGE_LOOP('',(#168,#169));
#55=EDGE_LOOP('',(#170,#171,#172,#173,#174,#175));
#56=EDGE_LOOP('',(#176,#177,#178,#179,#180,#181));
#57=EDGE_LOOP('',(#182,#183,#184,#185,#186,#187));
#58=EDGE_LOOP('',(#188,#189));
#59=EDGE_LOOP('',(#190,#191));
#60=EDGE_LOOP('',(#192,#193,#194,#195,#196,#197));
#61=EDGE_LOOP('',(#198,#199));
#62=EDGE_LOOP('',(#200,#201));
#63=EDGE_LOOP('',(#202,#203,#204,#205,#206,#207));
#64=EDGE_LOOP('',(#208,#209));
#65=EDGE_LOOP('',(#210,#211));
#66=EDGE_LOOP('',(#212,#213,#214,#215,#216,#217));
#67=EDGE_LOOP('',(#218,#219,#220,#221,#222,#223,#224));
#68=EDGE_LOOP('',(#225,#226,#227,#228,#229,#230,#231,#232));
#69=EDGE_LOOP('',(#233,#234,#235,#236,#237,#238,#239));
#70=CIRCLE('',#278,6.4999427313);
#71=CIRCLE('',#279,6.4999427313);
#72=CIRCLE('',#280,6.4975702861);
#73=CIRCLE('',#281,6.4975702861);
#74=CIRCLE('',#283,7.04);
#75=CIRCLE('',#284,7.04);
#76=CIRCLE('',#286,9.8049669231);
#77=CIRCLE('',#287,9.8049669231);
#78=CIRCLE('',#289,11.57);
#79=CIRCLE('',#290,11.57);
#80=CIRCLE('',#292,14.75);
#81=CIRCLE('',#293,14.75);
#82=CIRCLE('',#295,14.75);
#83=CIRCLE('',#296,14.75);
#84=CIRCLE('',#298,25.5);
#85=CIRCLE('',#299,25.5);
#86=CIRCLE('',#301,25.5);
#87=CIRCLE('',#302,25.5);
#88=CIRCLE('',#304,29.5);
#89=CIRCLE('',#305,29.5);
#90=CIRCLE('',#307,29.0626194351);
#91=CIRCLE('',#308,29.0626194351);
#92=CIRCLE('',#310,5.);
#93=CIRCLE('',#311,27.2766030367);
#94=CIRCLE('',#312,27.2766030367);
#95=CIRCLE('',#313,27.2766030367);
#96=CIRCLE('',#314,11.1339930717);
#97=CIRCLE('',#315,60.0000000000002);
#98=CIRCLE('',#316,11.1339930717);
#99=CIRCLE('',#317,11.1339930717);
#100=CIRCLE('',#319,20.);
#101=VERTEX_POINT('',#416);
#102=VERTEX_POINT('',#417);
#103=VERTEX_POINT('',#420);
#104=VERTEX_POINT('',#421);
#105=VERTEX_POINT('',#425);
#106=VERTEX_POINT('',#427);
#107=VERTEX_POINT('',#431);
#108=VERTEX_POINT('',#432);
#109=VERTEX_POINT('',#437);
#110=VERTEX_POINT('',#439);
#111=VERTEX_POINT('',#443);
#112=VERTEX_POINT('',#444);
#113=VERTEX_POINT('',#448);
#114=VERTEX_POINT('',#449);
#115=VERTEX_POINT('',#454);
#116=VERTEX_POINT('',#455);
#117=VERTEX_POINT('',#459);
#118=VERTEX_POINT('',#460);
#119=VERTEX_POINT('',#465);
#120=VERTEX_POINT('',#466);
#121=VERTEX_POINT('',#470);
#122=VERTEX_POINT('',#472);
#123=VERTEX_POINT('',#476);
#124=VERTEX_POINT('',#478);
#125=VERTEX_POINT('',#480);
#126=VERTEX_POINT('',#510);
#127=VERTEX_POINT('',#511);
#128=VERTEX_POINT('',#514);
#129=EDGE_CURVE('',#101,#102,#70,.T.);
#130=EDGE_CURVE('',#102,#101,#71,.T.);
#131=EDGE_CURVE('',#103,#104,#72,.T.);
#132=EDGE_CURVE('',#104,#103,#73,.T.);
#133=EDGE_CURVE('',#104,#105,#20,.T.);
#134=EDGE_CURVE('',#105,#106,#74,.T.);
#135=EDGE_CURVE('',#106,#105,#75,.T.);
#136=EDGE_CURVE('',#107,#108,#76,.T.);
#137=EDGE_CURVE('',#108,#106,#21,.T.);
#138=EDGE_CURVE('',#108,#107,#77,.T.);
#139=EDGE_CURVE('',#107,#109,#22,.T.);
#140=EDGE_CURVE('',#109,#110,#78,.T.);
#141=EDGE_CURVE('',#110,#109,#79,.T.);
#142=EDGE_CURVE('',#111,#112,#80,.T.);
#143=EDGE_CURVE('',#112,#111,#81,.T.);
#144=EDGE_CURVE('',#113,#114,#82,.T.);
#145=EDGE_CURVE('',#114,#112,#23,.T.);
#146=EDGE_CURVE('',#114,#113,#83,.T.);
#147=EDGE_CURVE('',#115,#116,#84,.T.);
#148=EDGE_CURVE('',#116,#115,#85,.T.);
#149=EDGE_CURVE('',#117,#118,#86,.T.);
#150=EDGE_CURVE('',#118,#116,#24,.T.);
#151=EDGE_CURVE('',#118,#117,#87,.T.);
#152=EDGE_CURVE('',#119,#120,#88,.T.);
#153=EDGE_CURVE('',#120,#119,#89,.T.);
#154=EDGE_CURVE('',#120,#121,#25,.T.);
#155=EDGE_CURVE('',#121,#122,#90,.T.);
#156=EDGE_CURVE('',#122,#121,#91,.T.);
#157=EDGE_CURVE('',#121,#123,#92,.T.);
#158=EDGE_CURVE('',#123,#124,#93,.T.);
#159=EDGE_CURVE('',#124,#125,#94,.T.);
#160=EDGE_CURVE('',#125,#123,#95,.T.);
#161=EDGE_CURVE('',#126,#127,#96,.T.);
#162=EDGE_CURVE('',#127,#125,#97,.T.);
#163=EDGE_CURVE('',#127,#128,#98,.T.);
#164=EDGE_CURVE('',#128,#126,#99,.T.);
#165=EDGE_CURVE('',#128,#102,#100,.T.);
#166=ORIENTED_EDGE('',*,*,#129,.F.);
#167=ORIENTED_EDGE('',*,*,#130,.F.);
#168=ORIENTED_EDGE('',*,*,#131,.T.);
#169=ORIENTED_EDGE('',*,*,#132,.T.);
#170=ORIENTED_EDGE('',*,*,#131,.F.);
#171=ORIENTED_EDGE('',*,*,#132,.F.);
#172=ORIENTED_EDGE('',*,*,#133,.T.);
#173=ORIENTED_EDGE('',*,*,#134,.T.);
#174=ORIENTED_EDGE('',*,*,#135,.T.);
#175=ORIENTED_EDGE('',*,*,#133,.F.);
#176=ORIENTED_EDGE('',*,*,#136,.T.);
#177=ORIENTED_EDGE('',*,*,#137,.T.);
#178=ORIENTED_EDGE('',*,*,#134,.F.);
#179=ORIENTED_EDGE('',*,*,#135,.F.);
#180=ORIENTED_EDGE('',*,*,#137,.F.);
#181=ORIENTED_EDGE('',*,*,#138,.T.);
#182=ORIENTED_EDGE('',*,*,#136,.F.);
#183=ORIENTED_EDGE('',*,*,#139,.T.);
#184=ORIENTED_EDGE('',*,*,#140,.T.);
#185=ORIENTED_EDGE('',*,*,#141,.T.);
#186=ORIENTED_EDGE('',*,*,#139,.F.);
#187=ORIENTED_EDGE('',*,*,#138,.F.);
#188=ORIENTED_EDGE('',*,*,#142,.T.);
#189=ORIENTED_EDGE('',*,*,#143,.T.);
#190=ORIENTED_EDGE('',*,*,#141,.F.);
#191=ORIENTED_EDGE('',*,*,#140,.F.);
#192=ORIENTED_EDGE('',*,*,#144,.T.);
#193=ORIENTED_EDGE('',*,*,#145,.T.);
#194=ORIENTED_EDGE('',*,*,#142,.F.);
#195=ORIENTED_EDGE('',*,*,#143,.F.);
#196=ORIENTED_EDGE('',*,*,#145,.F.);
#197=ORIENTED_EDGE('',*,*,#146,.T.);
#198=ORIENTED_EDGE('',*,*,#147,.T.);
#199=ORIENTED_EDGE('',*,*,#148,.T.);
#200=ORIENTED_EDGE('',*,*,#144,.F.);
#201=ORIENTED_EDGE('',*,*,#146,.F.);
#202=ORIENTED_EDGE('',*,*,#149,.T.);
#203=ORIENTED_EDGE('',*,*,#150,.T.);
#204=ORIENTED_EDGE('',*,*,#147,.F.);
#205=ORIENTED_EDGE('',*,*,#148,.F.);
#206=ORIENTED_EDGE('',*,*,#150,.F.);
#207=ORIENTED_EDGE('',*,*,#151,.T.);
#208=ORIENTED_EDGE('',*,*,#152,.T.);
#209=ORIENTED_EDGE('',*,*,#153,.T.);
#210=ORIENTED_EDGE('',*,*,#149,.F.);
#211=ORIENTED_EDGE('',*,*,#151,.F.);
#212=ORIENTED_EDGE('',*,*,#152,.F.);
#213=ORIENTED_EDGE('',*,*,#153,.F.);
#214=ORIENTED_EDGE('',*,*,#154,.T.);
#215=ORIENTED_EDGE('',*,*,#155,.T.);
#216=ORIENTED_EDGE('',*,*,#156,.T.);
#217=ORIENTED_EDGE('',*,*,#154,.F.);
#218=ORIENTED_EDGE('',*,*,#156,.F.);
#219=ORIENTED_EDGE('',*,*,#155,.F.);
#220=ORIENTED_EDGE('',*,*,#157,.T.);
#221=ORIENTED_EDGE('',*,*,#158,.T.);
#222=ORIENTED_EDGE('',*,*,#159,.T.);
#223=ORIENTED_EDGE('',*,*,#160,.T.);
#224=ORIENTED_EDGE('',*,*,#157,.F.);
#225=ORIENTED_EDGE('',*,*,#161,.T.);
#226=ORIENTED_EDGE('',*,*,#162,.T.);
#227=ORIENTED_EDGE('',*,*,#159,.F.);
#228=ORIENTED_EDGE('',*,*,#158,.F.);
#229=ORIENTED_EDGE('',*,*,#160,.F.);
#230=ORIENTED_EDGE('',*,*,#162,.F.);
#231=ORIENTED_EDGE('',*,*,#163,.T.);
#232=ORIENTED_EDGE('',*,*,#164,.T.);
#233=ORIENTED_EDGE('',*,*,#161,.F.);
#234=ORIENTED_EDGE('',*,*,#164,.F.);
#235=ORIENTED_EDGE('',*,*,#165,.T.);
#236=ORIENTED_EDGE('',*,*,#130,.T.);
#237=ORIENTED_EDGE('',*,*,#129,.T.);
#238=ORIENTED_EDGE('',*,*,#165,.F.);
#239=ORIENTED_EDGE('',*,*,#163,.F.);
#240=PLANE('',#277);
#241=PLANE('',#291);
#242=PLANE('',#297);
#243=PLANE('',#303);
#244=ADVANCED_FACE('',(#40,#36),#240,.T.);
#245=ADVANCED_FACE('',(#41),#32,.F.);
#246=ADVANCED_FACE('',(#42),#33,.T.);
#247=ADVANCED_FACE('',(#43),#34,.F.);
#248=ADVANCED_FACE('',(#44,#37),#241,.T.);
#249=ADVANCED_FACE('',(#45),#18,.T.);
#250=ADVANCED_FACE('',(#46,#38),#242,.T.);
#251=ADVANCED_FACE('',(#47),#19,.F.);
#252=ADVANCED_FACE('',(#48,#39),#243,.T.);
#253=ADVANCED_FACE('',(#49),#35,.T.);
#254=ADVANCED_FACE('',(#50),#17,.T.);
#255=ADVANCED_FACE('',(#51),#16,.F.);
#256=ADVANCED_FACE('',(#52),#15,.F.);
#257=CLOSED_SHELL('',(#244,#245,#246,#247,#248,#249,#250,#251,#252,#253,
#254,#255,#256));
#258=DERIVED_UNIT_ELEMENT(#260,1.);
#259=DERIVED_UNIT_ELEMENT(#524,3.);
#260=(
MASS_UNIT()
NAMED_UNIT(*)
SI_UNIT($,.GRAM.)
);
#261=DERIVED_UNIT((#258,#259));
#262=MEASURE_REPRESENTATION_ITEM('density measure',
POSITIVE_RATIO_MEASURE(1.36),#261);
#263=PROPERTY_DEFINITION_REPRESENTATION(#268,#265);
#264=PROPERTY_DEFINITION_REPRESENTATION(#269,#266);
#265=REPRESENTATION('material name',(#267),#521);
#266=REPRESENTATION('density',(#262),#521);
#267=DESCRIPTIVE_REPRESENTATION_ITEM('PA glasfaserverst\X\E4rkt',
'PA glasfaserverst\X\E4rkt');
#268=PROPERTY_DEFINITION('material property','material name',#531);
#269=PROPERTY_DEFINITION('material property','density of part',#531);
#270=DATE_TIME_ROLE('creation_date');
#271=APPLIED_DATE_AND_TIME_ASSIGNMENT(#272,#270,(#531));
#272=DATE_AND_TIME(#273,#274);
#273=CALENDAR_DATE(2020,4,2);
#274=LOCAL_TIME(9,36,32.,#275);
#275=COORDINATED_UNIVERSAL_TIME_OFFSET(0,0,.BEHIND.);
#276=AXIS2_PLACEMENT_3D('placement',#414,#320,#321);
#277=AXIS2_PLACEMENT_3D('',#415,#322,#323);
#278=AXIS2_PLACEMENT_3D('',#418,#324,#325);
#279=AXIS2_PLACEMENT_3D('',#419,#326,#327);
#280=AXIS2_PLACEMENT_3D('',#422,#328,#329);
#281=AXIS2_PLACEMENT_3D('',#423,#330,#331);
#282=AXIS2_PLACEMENT_3D('',#424,#332,#333);
#283=AXIS2_PLACEMENT_3D('',#428,#335,#336);
#284=AXIS2_PLACEMENT_3D('',#429,#337,#338);
#285=AXIS2_PLACEMENT_3D('',#430,#339,#340);
#286=AXIS2_PLACEMENT_3D('',#433,#341,#342);
#287=AXIS2_PLACEMENT_3D('',#435,#344,#345);
#288=AXIS2_PLACEMENT_3D('',#436,#346,#347);
#289=AXIS2_PLACEMENT_3D('',#440,#349,#350);
#290=AXIS2_PLACEMENT_3D('',#441,#351,#352);
#291=AXIS2_PLACEMENT_3D('',#442,#353,#354);
#292=AXIS2_PLACEMENT_3D('',#445,#355,#356);
#293=AXIS2_PLACEMENT_3D('',#446,#357,#358);
#294=AXIS2_PLACEMENT_3D('',#447,#359,#360);
#295=AXIS2_PLACEMENT_3D('',#450,#361,#362);
#296=AXIS2_PLACEMENT_3D('',#452,#364,#365);
#297=AXIS2_PLACEMENT_3D('',#453,#366,#367);
#298=AXIS2_PLACEMENT_3D('',#456,#368,#369);
#299=AXIS2_PLACEMENT_3D('',#457,#370,#371);
#300=AXIS2_PLACEMENT_3D('',#458,#372,#373);
#301=AXIS2_PLACEMENT_3D('',#461,#374,#375);
#302=AXIS2_PLACEMENT_3D('',#463,#377,#378);
#303=AXIS2_PLACEMENT_3D('',#464,#379,#380);
#304=AXIS2_PLACEMENT_3D('',#467,#381,#382);
#305=AXIS2_PLACEMENT_3D('',#468,#383,#384);
#306=AXIS2_PLACEMENT_3D('',#469,#385,#386);
#307=AXIS2_PLACEMENT_3D('',#473,#388,#389);
#308=AXIS2_PLACEMENT_3D('',#474,#390,#391);
#309=AXIS2_PLACEMENT_3D('',#475,#392,#393);
#310=AXIS2_PLACEMENT_3D('',#477,#394,#395);
#311=AXIS2_PLACEMENT_3D('',#479,#396,#397);
#312=AXIS2_PLACEMENT_3D('',#481,#398,#399);
#313=AXIS2_PLACEMENT_3D('',#482,#400,#401);
#314=AXIS2_PLACEMENT_3D('',#512,#402,#403);
#315=AXIS2_PLACEMENT_3D('',#513,#404,#405);
#316=AXIS2_PLACEMENT_3D('',#515,#406,#407);
#317=AXIS2_PLACEMENT_3D('',#516,#408,#409);
#318=AXIS2_PLACEMENT_3D('',#517,#410,#411);
#319=AXIS2_PLACEMENT_3D('',#518,#412,#413);
#320=DIRECTION('axis',(0.,0.,1.));
#321=DIRECTION('refdir',(1.,0.,0.));
#322=DIRECTION('center_axis',(0.,-2.22044604925031E-16,1.));
#323=DIRECTION('ref_axis',(0.,-1.,-2.22044604925031E-16));
#324=DIRECTION('center_axis',(0.,2.22044604925031E-16,-1.));
#325=DIRECTION('ref_axis',(0.,1.,2.22044604925031E-16));
#326=DIRECTION('center_axis',(0.,2.22044604925031E-16,-1.));
#327=DIRECTION('ref_axis',(0.,1.,2.22044604925031E-16));
#328=DIRECTION('center_axis',(0.,2.22044604925031E-16,-1.));
#329=DIRECTION('ref_axis',(0.,1.,2.22044604925031E-16));
#330=DIRECTION('center_axis',(0.,2.22044604925031E-16,-1.));
#331=DIRECTION('ref_axis',(0.,1.,2.22044604925031E-16));
#332=DIRECTION('center_axis',(0.,2.22044604925031E-16,-1.));
#333=DIRECTION('ref_axis',(0.,1.,2.22044604925031E-16));
#334=DIRECTION('',(-1.06735001383576E-17,-0.0871557427479404,-0.996194698091721));
#335=DIRECTION('center_axis',(0.,2.22044604925031E-16,-1.));
#336=DIRECTION('ref_axis',(0.,1.,2.22044604925031E-16));
#337=DIRECTION('center_axis',(0.,2.22044604925031E-16,-1.));
#338=DIRECTION('ref_axis',(0.,1.,2.22044604925031E-16));
#339=DIRECTION('center_axis',(0.,-2.22044604925031E-16,1.));
#340=DIRECTION('ref_axis',(0.,-1.,-2.22044604925031E-16));
#341=DIRECTION('center_axis',(0.,2.22044604925031E-16,-1.));
#342=DIRECTION('ref_axis',(0.,1.,2.22044604925031E-16));
#343=DIRECTION('',(1.1503048417653E-16,-0.939295185000431,-0.343110121440635));
#344=DIRECTION('center_axis',(0.,2.22044604925031E-16,-1.));
#345=DIRECTION('ref_axis',(0.,1.,2.22044604925031E-16));
#346=DIRECTION('center_axis',(0.,2.22044604925031E-16,-1.));
#347=DIRECTION('ref_axis',(0.,1.,2.22044604925031E-16));
#348=DIRECTION('',(-2.12657684958261E-17,-0.173648177667489,-0.98480775301211));
#349=DIRECTION('center_axis',(0.,2.22044604925031E-16,-1.));
#350=DIRECTION('ref_axis',(0.,1.,2.22044604925031E-16));
#351=DIRECTION('center_axis',(0.,2.22044604925031E-16,-1.));
#352=DIRECTION('ref_axis',(0.,1.,2.22044604925031E-16));
#353=DIRECTION('center_axis',(0.,2.22044604925031E-16,-1.));
#354=DIRECTION('ref_axis',(0.,1.,2.22044604925031E-16));
#355=DIRECTION('center_axis',(0.,2.22044604925031E-16,-1.));
#356=DIRECTION('ref_axis',(0.,1.,2.22044604925031E-16));
#357=DIRECTION('center_axis',(0.,2.22044604925031E-16,-1.));
#358=DIRECTION('ref_axis',(0.,1.,2.22044604925031E-16));
#359=DIRECTION('center_axis',(0.,-2.22044604925031E-16,1.));
#360=DIRECTION('ref_axis',(0.,1.,2.22044604925031E-16));
#361=DIRECTION('center_axis',(0.,2.22044604925031E-16,-1.));
#362=DIRECTION('ref_axis',(0.,1.,2.22044604925031E-16));
#363=DIRECTION('',(0.,2.22044604925031E-16,-1.));
#364=DIRECTION('center_axis',(0.,2.22044604925031E-16,-1.));
#365=DIRECTION('ref_axis',(0.,1.,2.22044604925031E-16));
#366=DIRECTION('center_axis',(0.,2.22044604925031E-16,-1.));
#367=DIRECTION('ref_axis',(0.,1.,2.22044604925031E-16));
#368=DIRECTION('center_axis',(0.,2.22044604925031E-16,-1.));
#369=DIRECTION('ref_axis',(0.,1.,2.22044604925031E-16));
#370=DIRECTION('center_axis',(0.,2.22044604925031E-16,-1.));
#371=DIRECTION('ref_axis',(0.,1.,2.22044604925031E-16));
#372=DIRECTION('center_axis',(0.,-2.22044604925031E-16,1.));
#373=DIRECTION('ref_axis',(0.,1.,2.22044604925031E-16));
#374=DIRECTION('center_axis',(0.,2.22044604925031E-16,-1.));
#375=DIRECTION('ref_axis',(0.,1.,2.22044604925031E-16));
#376=DIRECTION('',(0.,-2.22044604925031E-16,1.));
#377=DIRECTION('center_axis',(0.,2.22044604925031E-16,-1.));
#378=DIRECTION('ref_axis',(0.,1.,2.22044604925031E-16));
#379=DIRECTION('center_axis',(0.,2.22044604925031E-16,-1.));
#380=DIRECTION('ref_axis',(0.,1.,2.22044604925031E-16));
#381=DIRECTION('center_axis',(0.,2.22044604925031E-16,-1.));
#382=DIRECTION('ref_axis',(0.,1.,2.22044604925031E-16));
#383=DIRECTION('center_axis',(0.,2.22044604925031E-16,-1.));
#384=DIRECTION('ref_axis',(0.,1.,2.22044604925031E-16));
#385=DIRECTION('center_axis',(0.,2.22044604925031E-16,-1.));
#386=DIRECTION('ref_axis',(0.,1.,2.22044604925031E-16));
#387=DIRECTION('',(1.06735001383576E-17,0.0871557427479404,0.996194698091721));
#388=DIRECTION('center_axis',(0.,2.22044604925031E-16,-1.));
#389=DIRECTION('ref_axis',(0.,1.,2.22044604925031E-16));
#390=DIRECTION('center_axis',(0.,2.22044604925031E-16,-1.));
#391=DIRECTION('ref_axis',(0.,1.,2.22044604925031E-16));
#392=DIRECTION('center_axis',(0.,2.22044604925031E-16,-1.));
#393=DIRECTION('ref_axis',(0.,1.,2.13786004498625E-16));
#394=DIRECTION('center_axis',(-1.,1.22464679914735E-16,2.71926214689378E-32));
#395=DIRECTION('ref_axis',(-1.22464679914735E-16,-1.,-2.29056433391384E-16));
#396=DIRECTION('center_axis',(0.,2.22044604925031E-16,-1.));
#397=DIRECTION('ref_axis',(0.,1.,2.22044604925031E-16));
#398=DIRECTION('center_axis',(0.,2.22044604925031E-16,-1.));
#399=DIRECTION('ref_axis',(0.,1.,2.22044604925031E-16));
#400=DIRECTION('center_axis',(0.,2.22044604925031E-16,-1.));
#401=DIRECTION('ref_axis',(0.,1.,2.22044604925031E-16));
#402=DIRECTION('center_axis',(0.,2.22044604925031E-16,-1.));
#403=DIRECTION('ref_axis',(0.,1.,2.22044604925031E-16));
#404=DIRECTION('center_axis',(1.22464679914731E-16,1.,7.74794373842667E-16));
#405=DIRECTION('ref_axis',(1.,-1.22464679914735E-16,5.35410146769691E-15));
#406=DIRECTION('center_axis',(0.,2.22044604925031E-16,-1.));
#407=DIRECTION('ref_axis',(0.,1.,2.22044604925031E-16));
#408=DIRECTION('center_axis',(0.,2.22044604925031E-16,-1.));
#409=DIRECTION('ref_axis',(0.,1.,2.22044604925031E-16));
#410=DIRECTION('center_axis',(1.22464679914735E-16,2.22044604925031E-16,
-1.));
#411=DIRECTION('ref_axis',(1.,0.,0.));
#412=DIRECTION('center_axis',(-1.22464679914735E-16,-1.,-2.22044604925031E-16));
#413=DIRECTION('ref_axis',(-1.,1.22464679914735E-16,0.));
#414=CARTESIAN_POINT('',(0.,0.,0.));
#415=CARTESIAN_POINT('Origin',(6.49994273128617,-3.48610029732299E-15,15.7));
#416=CARTESIAN_POINT('',(0.,6.49994273128616,15.7));
#417=CARTESIAN_POINT('',(-6.4999427313,-2.69008689127022E-15,15.7));
#418=CARTESIAN_POINT('Origin',(0.,-3.48610029732299E-15,15.7));
#419=CARTESIAN_POINT('Origin',(0.,-3.48610029732299E-15,15.7));
#420=CARTESIAN_POINT('',(0.,6.49757028613927,15.7));
#421=CARTESIAN_POINT('',(-7.95722865310732E-16,-6.4975702861,15.7));
#422=CARTESIAN_POINT('Origin',(0.,-3.48610029732299E-15,15.7));
#423=CARTESIAN_POINT('Origin',(0.,-3.48610029732299E-15,15.7));
#424=CARTESIAN_POINT('Origin',(0.,-3.48610029732299E-15,15.7));
#425=CARTESIAN_POINT('',(-8.62151346595179E-16,-7.03999999996279,9.49999999999674));
#426=CARTESIAN_POINT('',(-7.95722865310732E-16,-6.4975702861,15.7));
#427=CARTESIAN_POINT('',(0.,7.04,9.5));
#428=CARTESIAN_POINT('Origin',(0.,-2.1094237467878E-15,9.5));
#429=CARTESIAN_POINT('Origin',(0.,-2.1094237467878E-15,9.5));
#430=CARTESIAN_POINT('Origin',(0.,-2.1094237467878E-15,9.5));
#431=CARTESIAN_POINT('',(-1.20076213581201E-15,-9.8049669231,10.51));
#432=CARTESIAN_POINT('',(-1.20076213581563E-15,9.80496692312959,10.509999999919));
#433=CARTESIAN_POINT('Origin',(0.,-2.33368879776208E-15,10.51));
#434=CARTESIAN_POINT('',(-8.62151346599737E-16,7.04,9.5));
#435=CARTESIAN_POINT('Origin',(0.,-2.33368879776208E-15,10.51));
#436=CARTESIAN_POINT('Origin',(0.,-2.33368879776208E-15,10.51));
#437=CARTESIAN_POINT('',(-1.4169163466132E-15,-11.5699999999977,0.499999999999587));
#438=CARTESIAN_POINT('',(-1.20076213581201E-15,-9.8049669231,10.51));
#439=CARTESIAN_POINT('',(0.,11.57,0.500000000000005));
#440=CARTESIAN_POINT('Origin',(0.,-1.11022302462516E-16,0.500000000000002));
#441=CARTESIAN_POINT('Origin',(0.,-1.11022302462516E-16,0.500000000000002));
#442=CARTESIAN_POINT('Origin',(11.57,-1.11022302462516E-16,0.500000000000001));
#443=CARTESIAN_POINT('',(0.,14.75,0.500000000000003));
#444=CARTESIAN_POINT('',(1.80635402874235E-15,-14.75,0.499999999999997));
#445=CARTESIAN_POINT('Origin',(0.,-1.11022302462516E-16,0.5));
#446=CARTESIAN_POINT('Origin',(0.,-1.11022302462516E-16,0.5));
#447=CARTESIAN_POINT('Origin',(0.,0.,0.));
#448=CARTESIAN_POINT('',(0.,14.75,5.));
#449=CARTESIAN_POINT('',(1.80635402874235E-15,-14.75,5.));
#450=CARTESIAN_POINT('Origin',(0.,-1.11022302462516E-15,5.));
#451=CARTESIAN_POINT('',(1.80635402874235E-15,-14.75,-3.27515792264421E-15));
#452=CARTESIAN_POINT('Origin',(0.,-1.11022302462516E-15,5.));
#453=CARTESIAN_POINT('Origin',(14.75,-1.11022302462516E-15,5.));
#454=CARTESIAN_POINT('',(0.,25.5,5.00000000000001));
#455=CARTESIAN_POINT('',(3.12284933782575E-15,-25.5,4.99999999999999));
#456=CARTESIAN_POINT('Origin',(0.,-1.11022302462516E-15,5.));
#457=CARTESIAN_POINT('Origin',(0.,-1.11022302462516E-15,5.));
#458=CARTESIAN_POINT('Origin',(0.,0.,0.));
#459=CARTESIAN_POINT('',(0.,25.5,5.6621374255883E-15));
#460=CARTESIAN_POINT('',(3.12284933782575E-15,-25.5,-5.66213742558829E-15));
#461=CARTESIAN_POINT('Origin',(0.,0.,0.));
#462=CARTESIAN_POINT('',(3.12284933782575E-15,-25.5,-5.66213742558829E-15));
#463=CARTESIAN_POINT('Origin',(0.,0.,0.));
#464=CARTESIAN_POINT('Origin',(25.5,0.,0.));
#465=CARTESIAN_POINT('',(0.,29.5,6.55031584528842E-15));
#466=CARTESIAN_POINT('',(-3.61270805748469E-15,-29.5,-6.55031584528842E-15));
#467=CARTESIAN_POINT('Origin',(0.,0.,0.));
#468=CARTESIAN_POINT('Origin',(0.,0.,0.));
#469=CARTESIAN_POINT('Origin',(0.,0.,0.));
#470=CARTESIAN_POINT('',(-3.55914438659937E-15,-29.062619435068,4.99928273336804));
#471=CARTESIAN_POINT('',(-3.61270805748469E-15,-29.5,-6.55031584528841E-15));
#472=CARTESIAN_POINT('',(0.,29.0626194350692,4.99928273337086));
#473=CARTESIAN_POINT('Origin',(0.,-1.11006375943986E-15,4.99928273337085));
#474=CARTESIAN_POINT('Origin',(0.,-1.11006375943986E-15,4.99928273337085));
#475=CARTESIAN_POINT('Origin',(0.,-1.01330088723031E-15,4.5635014981446));
#476=CARTESIAN_POINT('',(-3.34042046005076E-15,-27.2766030367,8.40957099690955));
#477=CARTESIAN_POINT('Origin',(-2.94915108944113E-15,-24.0816461652,4.56350149814459));
#478=CARTESIAN_POINT('',(0.,27.2766030367009,8.40957099690957));
#479=CARTESIAN_POINT('Origin',(0.,-1.86729986959778E-15,8.40957099690956));
#480=CARTESIAN_POINT('',(27.2766030367,-4.63156248356737E-14,8.40957099690956));
#481=CARTESIAN_POINT('Origin',(0.,-1.86729986959778E-15,8.40957099690956));
#482=CARTESIAN_POINT('Origin',(0.,-1.86729986959778E-15,8.40957099690956));
#483=CARTESIAN_POINT('Ctrl Pts',(11.1339930717055,-5.04058326758079E-14,
18.0000230588315));
#484=CARTESIAN_POINT('Ctrl Pts',(11.1339930717055,-11.1339930717058,18.0000230588315));
#485=CARTESIAN_POINT('Ctrl Pts',(-2.39434967179812E-13,-11.1339930717058,
18.0000230588314));
#486=CARTESIAN_POINT('Ctrl Pts',(-11.133993071706,-11.1339930717058,18.0000230588314));
#487=CARTESIAN_POINT('Ctrl Pts',(-11.133993071706,-5.04058326758078E-14,
18.0000230588314));
#488=CARTESIAN_POINT('Ctrl Pts',(-11.133993071706,11.1339930717057,18.0000230588314));
#489=CARTESIAN_POINT('Ctrl Pts',(-2.39434967179812E-13,11.1339930717057,
18.0000230588315));
#490=CARTESIAN_POINT('Ctrl Pts',(11.1339930717055,11.1339930717057,18.0000230588315));
#491=CARTESIAN_POINT('Ctrl Pts',(11.1339930717055,-5.04058326758079E-14,
18.0000230588315));
#492=CARTESIAN_POINT('Ctrl Pts',(19.9649723029672,-4.76812330687327E-14,
14.4834776384482));
#493=CARTESIAN_POINT('Ctrl Pts',(19.9649723029672,-19.9649723029675,14.4834776384482));
#494=CARTESIAN_POINT('Ctrl Pts',(-2.20587552359908E-13,-19.9649723029675,
14.4834776384481));
#495=CARTESIAN_POINT('Ctrl Pts',(-19.9649723029677,-19.9649723029675,14.483477638448));
#496=CARTESIAN_POINT('Ctrl Pts',(-19.9649723029677,-4.76812330687326E-14,
14.483477638448));
#497=CARTESIAN_POINT('Ctrl Pts',(-19.9649723029677,19.9649723029674,14.483477638448));
#498=CARTESIAN_POINT('Ctrl Pts',(-2.20587552359909E-13,19.9649723029674,
14.4834776384481));
#499=CARTESIAN_POINT('Ctrl Pts',(19.9649723029672,19.9649723029674,14.4834776384482));
#500=CARTESIAN_POINT('Ctrl Pts',(19.9649723029672,-4.76812330687327E-14,
14.4834776384482));
#501=CARTESIAN_POINT('Ctrl Pts',(27.2766030367004,-4.29752043756232E-14,
8.40957099690995));
#502=CARTESIAN_POINT('Ctrl Pts',(27.2766030367004,-27.2766030367006,8.40957099690993));
#503=CARTESIAN_POINT('Ctrl Pts',(-1.88033603991467E-13,-27.2766030367006,
8.4095709969098));
#504=CARTESIAN_POINT('Ctrl Pts',(-27.2766030367007,-27.2766030367006,8.40957099690966));
#505=CARTESIAN_POINT('Ctrl Pts',(-27.2766030367007,-4.29752043756232E-14,
8.40957099690968));
#506=CARTESIAN_POINT('Ctrl Pts',(-27.2766030367007,27.2766030367005,8.4095709969097));
#507=CARTESIAN_POINT('Ctrl Pts',(-1.88033603991467E-13,27.2766030367005,
8.40957099690984));
#508=CARTESIAN_POINT('Ctrl Pts',(27.2766030367004,27.2766030367005,8.40957099690998));
#509=CARTESIAN_POINT('Ctrl Pts',(27.2766030367004,-4.29752043756232E-14,
8.40957099690995));
#510=CARTESIAN_POINT('',(0.,11.1339930717442,18.0000230588162));
#511=CARTESIAN_POINT('',(11.1339930717,-5.17693535734947E-14,18.0000230588162));
#512=CARTESIAN_POINT('Origin',(0.,-3.9968080087363E-15,18.0000230588162));
#513=CARTESIAN_POINT('Origin',(-11.0631923223072,-5.861599353477E-15,-37.7430030573012));
#514=CARTESIAN_POINT('',(-11.1339930717,-2.63328711103767E-15,18.0000230588162));
#515=CARTESIAN_POINT('Origin',(0.,-3.9968080087363E-15,18.0000230588162));
#516=CARTESIAN_POINT('Origin',(0.,-3.9968080087363E-15,18.0000230588162));
#517=CARTESIAN_POINT('Origin',(4.33680868994202E-14,-7.68591856825644E-15,
34.6142999999997));
#518=CARTESIAN_POINT('Origin',(4.33680868994202E-14,-7.68591856825644E-15,
34.6142999999997));
#519=UNCERTAINTY_MEASURE_WITH_UNIT(LENGTH_MEASURE(0.01),#523,
'DISTANCE_ACCURACY_VALUE',
'Maximum model space distance between geometric entities at asserted c
onnectivities');
#520=UNCERTAINTY_MEASURE_WITH_UNIT(LENGTH_MEASURE(0.01),#523,
'DISTANCE_ACCURACY_VALUE',
'Maximum model space distance between geometric entities at asserted c
onnectivities');
#521=(
GEOMETRIC_REPRESENTATION_CONTEXT(3)
GLOBAL_UNCERTAINTY_ASSIGNED_CONTEXT((#519))
GLOBAL_UNIT_ASSIGNED_CONTEXT((#523,#525,#526))
REPRESENTATION_CONTEXT('','3D')
);
#522=(
GEOMETRIC_REPRESENTATION_CONTEXT(3)
GLOBAL_UNCERTAINTY_ASSIGNED_CONTEXT((#520))
GLOBAL_UNIT_ASSIGNED_CONTEXT((#523,#525,#526))
REPRESENTATION_CONTEXT('','3D')
);
#523=(
LENGTH_UNIT()
NAMED_UNIT(*)
SI_UNIT(.MILLI.,.METRE.)
);
#524=(
LENGTH_UNIT()
NAMED_UNIT(*)
SI_UNIT(.CENTI.,.METRE.)
);
#525=(
NAMED_UNIT(*)
PLANE_ANGLE_UNIT()
SI_UNIT($,.RADIAN.)
);
#526=(
NAMED_UNIT(*)
SI_UNIT($,.STERADIAN.)
SOLID_ANGLE_UNIT()
);
#527=SHAPE_DEFINITION_REPRESENTATION(#528,#529);
#528=PRODUCT_DEFINITION_SHAPE('',$,#531);
#529=SHAPE_REPRESENTATION('',(#276),#521);
#530=PRODUCT_DEFINITION_CONTEXT('part definition',#535,'design');
#531=PRODUCT_DEFINITION('203600402',
'203600402 Teller 60 f\X\FCr feste Stellf\X\FC\X\DFe',#532,#530);
#532=PRODUCT_DEFINITION_FORMATION('',$,#537);
#533=PRODUCT_RELATED_PRODUCT_CATEGORY(
'203600402 Teller 60 f\X\FCr feste Stellf\X\FC\X\DFe',
'203600402 Teller 60 f\X\FCr feste Stellf\X\FC\X\DFe',(#537));
#534=APPLICATION_PROTOCOL_DEFINITION('international standard',
'automotive_design',2009,#535);
#535=APPLICATION_CONTEXT(
'Core Data for Automotive Mechanical Design Process');
#536=PRODUCT_CONTEXT('part definition',#535,'mechanical');
#537=PRODUCT('203600402','203600402 Teller 60 f\X\FCr feste Stellf\X\FC
\X\DFe','Teller 60 f\X\FCr feste Stellf\X\FC\X\DFe',(#536));
#538=PRESENTATION_STYLE_ASSIGNMENT((#539));
#539=SURFACE_STYLE_USAGE(.BOTH.,#542);
#540=SURFACE_STYLE_RENDERING_WITH_PROPERTIES($,#546,(#541));
#541=SURFACE_STYLE_TRANSPARENT(0.);
#542=SURFACE_SIDE_STYLE('',(#543,#540));
#543=SURFACE_STYLE_FILL_AREA(#544);
#544=FILL_AREA_STYLE('',(#545));
#545=FILL_AREA_STYLE_COLOUR('',#546);
#546=COLOUR_RGB('',0.,0.,0.);
ENDSEC;
END-ISO-10303-21;
