ISO-10303-21;
HEADER;
/* Generated by software containing ST-Developer
 * from STEP Tools, Inc. (www.steptools.com) 
 */

FILE_DESCRIPTION(
/* description */ ('D\X\E4mpfungsplatte f\X\FCr Teller 45'),
/* implementation_level */ '2;1');

FILE_NAME(
/* name */ 
'T:\\Produktinformationen\\MT\\B45\\3D-Files B45\\D\X\E4mpfungsplatten
\\403538557 D\X\E4mpfungsplatte f\X\FCr Teller 45.stp',
/* time_stamp */ '2020-01-24T12:41:51+01:00',
/* author */ ('wheldmann'),
/* organization */ (''),
/* preprocessor_version */ 'ST-DEVELOPER v17.2',
/* originating_system */ 'Autodesk Inventor 2019',
/* authorisation */ '');

FILE_SCHEMA (('AUTOMOTIVE_DESIGN { 1 0 10303 214 3 1 1 }'));
ENDSEC;

DATA;
#10=MECHANICAL_DESIGN_GEOMETRIC_PRESENTATION_REPRESENTATION('',(#13),#350);
#11=SHAPE_REPRESENTATION_RELATIONSHIP('SRR','None',#357,#12);
#12=ADVANCED_BREP_SHAPE_REPRESENTATION('',(#14),#349);
#13=STYLED_ITEM('',(#366),#14);
#14=MANIFOLD_SOLID_BREP('Volumenk\X\F6rper2',#176);
#15=FACE_BOUND('',#48,.T.);
#16=FACE_BOUND('',#50,.T.);
#17=PLANE('',#223);
#18=PLANE('',#224);
#19=PLANE('',#225);
#20=PLANE('',#226);
#21=LINE('',#317,#24);
#22=LINE('',#326,#25);
#23=LINE('',#339,#26);
#24=VECTOR('',#255,7.5);
#25=VECTOR('',#266,17.5);
#26=VECTOR('',#281,7.5);
#27=CYLINDRICAL_SURFACE('',#208,7.5);
#28=CYLINDRICAL_SURFACE('',#211,17.5);
#29=CYLINDRICAL_SURFACE('',#218,7.5);
#30=FACE_OUTER_BOUND('',#40,.T.);
#31=FACE_OUTER_BOUND('',#41,.T.);
#32=FACE_OUTER_BOUND('',#42,.T.);
#33=FACE_OUTER_BOUND('',#43,.T.);
#34=FACE_OUTER_BOUND('',#44,.T.);
#35=FACE_OUTER_BOUND('',#45,.T.);
#36=FACE_OUTER_BOUND('',#46,.T.);
#37=FACE_OUTER_BOUND('',#47,.T.);
#38=FACE_OUTER_BOUND('',#49,.T.);
#39=FACE_OUTER_BOUND('',#51,.T.);
#40=EDGE_LOOP('',(#115,#116,#117,#118,#119,#120));
#41=EDGE_LOOP('',(#121,#122,#123,#124,#125,#126));
#42=EDGE_LOOP('',(#127,#128,#129,#130,#131,#132));
#43=EDGE_LOOP('',(#133,#134,#135,#136,#137,#138));
#44=EDGE_LOOP('',(#139,#140,#141,#142,#143,#144));
#45=EDGE_LOOP('',(#145,#146,#147,#148,#149,#150));
#46=EDGE_LOOP('',(#151,#152));
#47=EDGE_LOOP('',(#153,#154));
#48=EDGE_LOOP('',(#155,#156));
#49=EDGE_LOOP('',(#157,#158));
#50=EDGE_LOOP('',(#159,#160));
#51=EDGE_LOOP('',(#161,#162));
#52=CIRCLE('',#197,8.0857864376269);
#53=CIRCLE('',#198,8.0857864376269);
#54=CIRCLE('',#199,1.0857864376269);
#55=CIRCLE('',#200,7.5);
#56=CIRCLE('',#201,7.5);
#57=CIRCLE('',#203,16.5);
#58=CIRCLE('',#204,16.5);
#59=CIRCLE('',#205,1.);
#60=CIRCLE('',#206,17.5);
#61=CIRCLE('',#207,17.5);
#62=CIRCLE('',#209,7.5);
#63=CIRCLE('',#210,7.5);
#64=CIRCLE('',#212,17.5);
#65=CIRCLE('',#213,17.5);
#66=CIRCLE('',#215,15.5);
#67=CIRCLE('',#216,15.5);
#68=CIRCLE('',#217,2.);
#69=CIRCLE('',#219,7.5);
#70=CIRCLE('',#220,7.5);
#71=CIRCLE('',#221,7.5);
#72=CIRCLE('',#222,7.5);
#73=VERTEX_POINT('',#296);
#74=VERTEX_POINT('',#297);
#75=VERTEX_POINT('',#300);
#76=VERTEX_POINT('',#302);
#77=VERTEX_POINT('',#306);
#78=VERTEX_POINT('',#307);
#79=VERTEX_POINT('',#310);
#80=VERTEX_POINT('',#312);
#81=VERTEX_POINT('',#316);
#82=VERTEX_POINT('',#318);
#83=VERTEX_POINT('',#322);
#84=VERTEX_POINT('',#323);
#85=VERTEX_POINT('',#328);
#86=VERTEX_POINT('',#329);
#87=VERTEX_POINT('',#334);
#88=VERTEX_POINT('',#335);
#89=VERTEX_POINT('',#338);
#90=VERTEX_POINT('',#340);
#91=EDGE_CURVE('',#73,#74,#52,.T.);
#92=EDGE_CURVE('',#74,#73,#53,.T.);
#93=EDGE_CURVE('',#74,#75,#54,.T.);
#94=EDGE_CURVE('',#75,#76,#55,.T.);
#95=EDGE_CURVE('',#76,#75,#56,.T.);
#96=EDGE_CURVE('',#77,#78,#57,.T.);
#97=EDGE_CURVE('',#78,#77,#58,.T.);
#98=EDGE_CURVE('',#78,#79,#59,.T.);
#99=EDGE_CURVE('',#80,#79,#60,.T.);
#100=EDGE_CURVE('',#79,#80,#61,.T.);
#101=EDGE_CURVE('',#75,#81,#21,.T.);
#102=EDGE_CURVE('',#81,#82,#62,.T.);
#103=EDGE_CURVE('',#82,#81,#63,.T.);
#104=EDGE_CURVE('',#83,#84,#64,.T.);
#105=EDGE_CURVE('',#84,#83,#65,.T.);
#106=EDGE_CURVE('',#84,#80,#22,.T.);
#107=EDGE_CURVE('',#85,#86,#66,.T.);
#108=EDGE_CURVE('',#86,#85,#67,.T.);
#109=EDGE_CURVE('',#86,#84,#68,.T.);
#110=EDGE_CURVE('',#87,#88,#69,.T.);
#111=EDGE_CURVE('',#88,#87,#70,.T.);
#112=EDGE_CURVE('',#88,#89,#23,.T.);
#113=EDGE_CURVE('',#89,#90,#71,.T.);
#114=EDGE_CURVE('',#90,#89,#72,.T.);
#115=ORIENTED_EDGE('',*,*,#91,.F.);
#116=ORIENTED_EDGE('',*,*,#92,.F.);
#117=ORIENTED_EDGE('',*,*,#93,.T.);
#118=ORIENTED_EDGE('',*,*,#94,.T.);
#119=ORIENTED_EDGE('',*,*,#95,.T.);
#120=ORIENTED_EDGE('',*,*,#93,.F.);
#121=ORIENTED_EDGE('',*,*,#96,.F.);
#122=ORIENTED_EDGE('',*,*,#97,.F.);
#123=ORIENTED_EDGE('',*,*,#98,.T.);
#124=ORIENTED_EDGE('',*,*,#99,.F.);
#125=ORIENTED_EDGE('',*,*,#100,.F.);
#126=ORIENTED_EDGE('',*,*,#98,.F.);
#127=ORIENTED_EDGE('',*,*,#95,.F.);
#128=ORIENTED_EDGE('',*,*,#94,.F.);
#129=ORIENTED_EDGE('',*,*,#101,.T.);
#130=ORIENTED_EDGE('',*,*,#102,.T.);
#131=ORIENTED_EDGE('',*,*,#103,.T.);
#132=ORIENTED_EDGE('',*,*,#101,.F.);
#133=ORIENTED_EDGE('',*,*,#104,.F.);
#134=ORIENTED_EDGE('',*,*,#105,.F.);
#135=ORIENTED_EDGE('',*,*,#106,.T.);
#136=ORIENTED_EDGE('',*,*,#99,.T.);
#137=ORIENTED_EDGE('',*,*,#100,.T.);
#138=ORIENTED_EDGE('',*,*,#106,.F.);
#139=ORIENTED_EDGE('',*,*,#107,.F.);
#140=ORIENTED_EDGE('',*,*,#108,.F.);
#141=ORIENTED_EDGE('',*,*,#109,.T.);
#142=ORIENTED_EDGE('',*,*,#105,.T.);
#143=ORIENTED_EDGE('',*,*,#104,.T.);
#144=ORIENTED_EDGE('',*,*,#109,.F.);
#145=ORIENTED_EDGE('',*,*,#110,.F.);
#146=ORIENTED_EDGE('',*,*,#111,.F.);
#147=ORIENTED_EDGE('',*,*,#112,.T.);
#148=ORIENTED_EDGE('',*,*,#113,.T.);
#149=ORIENTED_EDGE('',*,*,#114,.T.);
#150=ORIENTED_EDGE('',*,*,#112,.F.);
#151=ORIENTED_EDGE('',*,*,#110,.T.);
#152=ORIENTED_EDGE('',*,*,#111,.T.);
#153=ORIENTED_EDGE('',*,*,#107,.T.);
#154=ORIENTED_EDGE('',*,*,#108,.T.);
#155=ORIENTED_EDGE('',*,*,#114,.F.);
#156=ORIENTED_EDGE('',*,*,#113,.F.);
#157=ORIENTED_EDGE('',*,*,#96,.T.);
#158=ORIENTED_EDGE('',*,*,#97,.T.);
#159=ORIENTED_EDGE('',*,*,#91,.T.);
#160=ORIENTED_EDGE('',*,*,#92,.T.);
#161=ORIENTED_EDGE('',*,*,#103,.F.);
#162=ORIENTED_EDGE('',*,*,#102,.F.);
#163=TOROIDAL_SURFACE('',#196,8.0857864376269,1.0857864376269);
#164=TOROIDAL_SURFACE('',#202,16.5,1.);
#165=TOROIDAL_SURFACE('',#214,15.5,2.);
#166=ADVANCED_FACE('',(#30),#163,.T.);
#167=ADVANCED_FACE('',(#31),#164,.T.);
#168=ADVANCED_FACE('',(#32),#27,.F.);
#169=ADVANCED_FACE('',(#33),#28,.T.);
#170=ADVANCED_FACE('',(#34),#165,.T.);
#171=ADVANCED_FACE('',(#35),#29,.F.);
#172=ADVANCED_FACE('',(#36),#17,.F.);
#173=ADVANCED_FACE('',(#37,#15),#18,.T.);
#174=ADVANCED_FACE('',(#38,#16),#19,.T.);
#175=ADVANCED_FACE('',(#39),#20,.F.);
#176=CLOSED_SHELL('',(#166,#167,#168,#169,#170,#171,#172,#173,#174,#175));
#177=DERIVED_UNIT_ELEMENT(#179,1.);
#178=DERIVED_UNIT_ELEMENT(#352,3.);
#179=(
MASS_UNIT()
NAMED_UNIT(*)
SI_UNIT($,.GRAM.)
);
#180=DERIVED_UNIT((#177,#178));
#181=MEASURE_REPRESENTATION_ITEM('density measure',
POSITIVE_RATIO_MEASURE(1.3),#180);
#182=PROPERTY_DEFINITION_REPRESENTATION(#187,#184);
#183=PROPERTY_DEFINITION_REPRESENTATION(#188,#185);
#184=REPRESENTATION('material name',(#186),#349);
#185=REPRESENTATION('density',(#181),#349);
#186=DESCRIPTIVE_REPRESENTATION_ITEM(
'TPE \X2\2013\X0\ Thermoplastische Elastomere',
'TPE \X2\2013\X0\ Thermoplastische Elastomere');
#187=PROPERTY_DEFINITION('material property','material name',#359);
#188=PROPERTY_DEFINITION('material property','density of part',#359);
#189=DATE_TIME_ROLE('creation_date');
#190=APPLIED_DATE_AND_TIME_ASSIGNMENT(#191,#189,(#359));
#191=DATE_AND_TIME(#192,#193);
#192=CALENDAR_DATE(2020,24,1);
#193=LOCAL_TIME(12,25,46.,#194);
#194=COORDINATED_UNIVERSAL_TIME_OFFSET(0,0,.BEHIND.);
#195=AXIS2_PLACEMENT_3D('placement',#294,#227,#228);
#196=AXIS2_PLACEMENT_3D('',#295,#229,#230);
#197=AXIS2_PLACEMENT_3D('',#298,#231,#232);
#198=AXIS2_PLACEMENT_3D('',#299,#233,#234);
#199=AXIS2_PLACEMENT_3D('',#301,#235,#236);
#200=AXIS2_PLACEMENT_3D('',#303,#237,#238);
#201=AXIS2_PLACEMENT_3D('',#304,#239,#240);
#202=AXIS2_PLACEMENT_3D('',#305,#241,#242);
#203=AXIS2_PLACEMENT_3D('',#308,#243,#244);
#204=AXIS2_PLACEMENT_3D('',#309,#245,#246);
#205=AXIS2_PLACEMENT_3D('',#311,#247,#248);
#206=AXIS2_PLACEMENT_3D('',#313,#249,#250);
#207=AXIS2_PLACEMENT_3D('',#314,#251,#252);
#208=AXIS2_PLACEMENT_3D('',#315,#253,#254);
#209=AXIS2_PLACEMENT_3D('',#319,#256,#257);
#210=AXIS2_PLACEMENT_3D('',#320,#258,#259);
#211=AXIS2_PLACEMENT_3D('',#321,#260,#261);
#212=AXIS2_PLACEMENT_3D('',#324,#262,#263);
#213=AXIS2_PLACEMENT_3D('',#325,#264,#265);
#214=AXIS2_PLACEMENT_3D('',#327,#267,#268);
#215=AXIS2_PLACEMENT_3D('',#330,#269,#270);
#216=AXIS2_PLACEMENT_3D('',#331,#271,#272);
#217=AXIS2_PLACEMENT_3D('',#332,#273,#274);
#218=AXIS2_PLACEMENT_3D('',#333,#275,#276);
#219=AXIS2_PLACEMENT_3D('',#336,#277,#278);
#220=AXIS2_PLACEMENT_3D('',#337,#279,#280);
#221=AXIS2_PLACEMENT_3D('',#341,#282,#283);
#222=AXIS2_PLACEMENT_3D('',#342,#284,#285);
#223=AXIS2_PLACEMENT_3D('',#343,#286,#287);
#224=AXIS2_PLACEMENT_3D('',#344,#288,#289);
#225=AXIS2_PLACEMENT_3D('',#345,#290,#291);
#226=AXIS2_PLACEMENT_3D('',#346,#292,#293);
#227=DIRECTION('axis',(0.,0.,1.));
#228=DIRECTION('refdir',(1.,0.,0.));
#229=DIRECTION('center_axis',(0.,2.22044604925031E-16,-1.));
#230=DIRECTION('ref_axis',(0.,1.,1.93680720151405E-16));
#231=DIRECTION('center_axis',(0.,2.22044604925031E-16,-1.));
#232=DIRECTION('ref_axis',(0.,1.,2.22044604925031E-16));
#233=DIRECTION('center_axis',(0.,2.22044604925031E-16,-1.));
#234=DIRECTION('ref_axis',(0.,1.,2.22044604925031E-16));
#235=DIRECTION('center_axis',(-1.,1.22464679914735E-16,2.71926214689378E-32));
#236=DIRECTION('ref_axis',(-1.22464679914735E-16,-1.,-2.42100900189257E-16));
#237=DIRECTION('center_axis',(0.,2.22044604925031E-16,-1.));
#238=DIRECTION('ref_axis',(0.,1.,2.22044604925031E-16));
#239=DIRECTION('center_axis',(0.,2.22044604925031E-16,-1.));
#240=DIRECTION('ref_axis',(0.,1.,2.22044604925031E-16));
#241=DIRECTION('center_axis',(0.,-2.22044604925031E-16,1.));
#242=DIRECTION('ref_axis',(0.,-1.,-2.03012210217171E-16));
#243=DIRECTION('center_axis',(0.,-2.22044604925031E-16,1.));
#244=DIRECTION('ref_axis',(0.,-1.,-2.22044604925031E-16));
#245=DIRECTION('center_axis',(0.,-2.22044604925031E-16,1.));
#246=DIRECTION('ref_axis',(0.,-1.,-2.22044604925031E-16));
#247=DIRECTION('center_axis',(-1.,-1.22464679914735E-16,-2.71926214689378E-32));
#248=DIRECTION('ref_axis',(-1.22464679914735E-16,1.,1.90323947078598E-16));
#249=DIRECTION('center_axis',(0.,2.22044604925031E-16,-1.));
#250=DIRECTION('ref_axis',(0.,-1.,-2.22044604925031E-16));
#251=DIRECTION('center_axis',(0.,2.22044604925031E-16,-1.));
#252=DIRECTION('ref_axis',(0.,-1.,-2.22044604925031E-16));
#253=DIRECTION('center_axis',(0.,2.22044604925031E-16,-1.));
#254=DIRECTION('ref_axis',(0.,1.,2.22044604925031E-16));
#255=DIRECTION('',(0.,2.22044604925031E-16,-1.));
#256=DIRECTION('center_axis',(0.,2.22044604925031E-16,-1.));
#257=DIRECTION('ref_axis',(0.,1.,2.22044604925031E-16));
#258=DIRECTION('center_axis',(0.,2.22044604925031E-16,-1.));
#259=DIRECTION('ref_axis',(0.,1.,2.22044604925031E-16));
#260=DIRECTION('center_axis',(0.,2.22044604925031E-16,-1.));
#261=DIRECTION('ref_axis',(0.,1.,2.22044604925031E-16));
#262=DIRECTION('center_axis',(0.,2.22044604925031E-16,-1.));
#263=DIRECTION('ref_axis',(0.,1.,2.22044604925031E-16));
#264=DIRECTION('center_axis',(0.,2.22044604925031E-16,-1.));
#265=DIRECTION('ref_axis',(0.,1.,2.22044604925031E-16));
#266=DIRECTION('',(0.,-2.22044604925031E-16,1.));
#267=DIRECTION('center_axis',(0.,2.22044604925031E-16,-1.));
#268=DIRECTION('ref_axis',(0.,1.,2.28388736494318E-16));
#269=DIRECTION('center_axis',(0.,2.22044604925031E-16,-1.));
#270=DIRECTION('ref_axis',(0.,1.,2.22044604925031E-16));
#271=DIRECTION('center_axis',(0.,2.22044604925031E-16,-1.));
#272=DIRECTION('ref_axis',(0.,1.,2.22044604925031E-16));
#273=DIRECTION('center_axis',(-1.,1.22464679914735E-16,2.71926214689378E-32));
#274=DIRECTION('ref_axis',(-1.22464679914735E-16,-1.,-2.22044604925031E-16));
#275=DIRECTION('center_axis',(0.,2.22044604925031E-16,-1.));
#276=DIRECTION('ref_axis',(0.,1.,2.22044604925031E-16));
#277=DIRECTION('center_axis',(0.,2.22044604925031E-16,-1.));
#278=DIRECTION('ref_axis',(0.,1.,2.22044604925031E-16));
#279=DIRECTION('center_axis',(0.,2.22044604925031E-16,-1.));
#280=DIRECTION('ref_axis',(0.,1.,2.22044604925031E-16));
#281=DIRECTION('',(0.,2.22044604925031E-16,-1.));
#282=DIRECTION('center_axis',(0.,2.22044604925031E-16,-1.));
#283=DIRECTION('ref_axis',(0.,1.,2.22044604925031E-16));
#284=DIRECTION('center_axis',(0.,2.22044604925031E-16,-1.));
#285=DIRECTION('ref_axis',(0.,1.,2.22044604925031E-16));
#286=DIRECTION('center_axis',(0.,-2.22044604925031E-16,1.));
#287=DIRECTION('ref_axis',(0.,-1.,-2.22044604925031E-16));
#288=DIRECTION('center_axis',(0.,2.22044604925031E-16,-1.));
#289=DIRECTION('ref_axis',(0.,1.,2.22044604925031E-16));
#290=DIRECTION('center_axis',(0.,-2.22044604925031E-16,1.));
#291=DIRECTION('ref_axis',(0.,-1.,-2.22044604925031E-16));
#292=DIRECTION('center_axis',(0.,2.22044604925031E-16,-1.));
#293=DIRECTION('ref_axis',(0.,1.,2.22044604925031E-16));
#294=CARTESIAN_POINT('',(0.,0.,0.));
#295=CARTESIAN_POINT('Origin',(0.,-1.31321921389939E-15,5.91421356237309));
#296=CARTESIAN_POINT('',(0.,8.0857864376269,7.));
#297=CARTESIAN_POINT('',(-9.90223247942887E-16,-8.0857864376269,7.));
#298=CARTESIAN_POINT('Origin',(0.,-1.55431223447522E-15,7.));
#299=CARTESIAN_POINT('Origin',(0.,-1.55431223447522E-15,7.));
#300=CARTESIAN_POINT('',(-9.18485099360515E-16,-7.5,5.));
#301=CARTESIAN_POINT('Origin',(-9.90223247942886E-16,-8.0857864376269,5.91421356237309));
#302=CARTESIAN_POINT('',(0.,7.5,5.));
#303=CARTESIAN_POINT('Origin',(0.,-1.11022302462516E-15,5.));
#304=CARTESIAN_POINT('Origin',(0.,-1.11022302462516E-15,5.));
#305=CARTESIAN_POINT('Origin',(0.,-1.33226762955019E-15,6.));
#306=CARTESIAN_POINT('',(0.,-16.5,7.));
#307=CARTESIAN_POINT('',(-2.02066721859313E-15,16.5,7.));
#308=CARTESIAN_POINT('Origin',(0.,-1.55431223447522E-15,7.));
#309=CARTESIAN_POINT('Origin',(0.,-1.55431223447522E-15,7.));
#310=CARTESIAN_POINT('',(-2.14313189850787E-15,17.5,6.));
#311=CARTESIAN_POINT('Origin',(-2.02066721859313E-15,16.5,6.));
#312=CARTESIAN_POINT('',(2.14313189850787E-15,-17.5,6.));
#313=CARTESIAN_POINT('Origin',(0.,-1.33226762955019E-15,6.));
#314=CARTESIAN_POINT('Origin',(0.,-1.33226762955019E-15,6.));
#315=CARTESIAN_POINT('Origin',(0.,0.,0.));
#316=CARTESIAN_POINT('',(-9.18485099360515E-16,-7.5,2.5));
#317=CARTESIAN_POINT('',(-9.18485099360515E-16,-7.5,-1.66533453693773E-15));
#318=CARTESIAN_POINT('',(0.,7.5,2.5));
#319=CARTESIAN_POINT('Origin',(0.,-5.55111512312578E-16,2.5));
#320=CARTESIAN_POINT('Origin',(0.,-5.55111512312578E-16,2.5));
#321=CARTESIAN_POINT('Origin',(0.,0.,0.));
#322=CARTESIAN_POINT('',(0.,17.5,2.));
#323=CARTESIAN_POINT('',(-2.14313189850787E-15,-17.5,2.));
#324=CARTESIAN_POINT('Origin',(0.,-4.44089209850063E-16,2.));
#325=CARTESIAN_POINT('Origin',(0.,-4.44089209850063E-16,2.));
#326=CARTESIAN_POINT('',(-2.14313189850787E-15,-17.5,-3.88578058618804E-15));
#327=CARTESIAN_POINT('Origin',(0.,-4.44089209850063E-16,2.));
#328=CARTESIAN_POINT('',(0.,15.5,3.44169137633798E-15));
#329=CARTESIAN_POINT('',(-1.8982025386784E-15,-15.5,-3.38618022510673E-15));
#330=CARTESIAN_POINT('Origin',(0.,0.,0.));
#331=CARTESIAN_POINT('Origin',(0.,0.,0.));
#332=CARTESIAN_POINT('Origin',(-1.8982025386784E-15,-15.5,2.));
#333=CARTESIAN_POINT('Origin',(0.,0.,0.));
#334=CARTESIAN_POINT('',(0.,7.5,0.400000000000003));
#335=CARTESIAN_POINT('',(-9.18485099360515E-16,-7.5,0.399999999999999));
#336=CARTESIAN_POINT('Origin',(0.,-8.88178419700127E-17,0.400000000000001));
#337=CARTESIAN_POINT('Origin',(0.,-8.88178419700127E-17,0.400000000000001));
#338=CARTESIAN_POINT('',(-9.18485099360515E-16,-7.5,-1.66533453693773E-15));
#339=CARTESIAN_POINT('',(-9.18485099360515E-16,-7.5,-1.66533453693773E-15));
#340=CARTESIAN_POINT('',(0.,7.5,1.66533453693773E-15));
#341=CARTESIAN_POINT('Origin',(0.,0.,0.));
#342=CARTESIAN_POINT('Origin',(0.,0.,0.));
#343=CARTESIAN_POINT('Origin',(7.5,-8.88178419700125E-17,0.4));
#344=CARTESIAN_POINT('Origin',(7.5,0.,0.));
#345=CARTESIAN_POINT('Origin',(17.5,-1.55431223447522E-15,7.));
#346=CARTESIAN_POINT('Origin',(0.,-5.55111512312578E-16,2.5));
#347=UNCERTAINTY_MEASURE_WITH_UNIT(LENGTH_MEASURE(0.01),#351,
'DISTANCE_ACCURACY_VALUE',
'Maximum model space distance between geometric entities at asserted c
onnectivities');
#348=UNCERTAINTY_MEASURE_WITH_UNIT(LENGTH_MEASURE(0.01),#351,
'DISTANCE_ACCURACY_VALUE',
'Maximum model space distance between geometric entities at asserted c
onnectivities');
#349=(
GEOMETRIC_REPRESENTATION_CONTEXT(3)
GLOBAL_UNCERTAINTY_ASSIGNED_CONTEXT((#347))
GLOBAL_UNIT_ASSIGNED_CONTEXT((#351,#353,#354))
REPRESENTATION_CONTEXT('','3D')
);
#350=(
GEOMETRIC_REPRESENTATION_CONTEXT(3)
GLOBAL_UNCERTAINTY_ASSIGNED_CONTEXT((#348))
GLOBAL_UNIT_ASSIGNED_CONTEXT((#351,#353,#354))
REPRESENTATION_CONTEXT('','3D')
);
#351=(
LENGTH_UNIT()
NAMED_UNIT(*)
SI_UNIT(.MILLI.,.METRE.)
);
#352=(
LENGTH_UNIT()
NAMED_UNIT(*)
SI_UNIT(.CENTI.,.METRE.)
);
#353=(
NAMED_UNIT(*)
PLANE_ANGLE_UNIT()
SI_UNIT($,.RADIAN.)
);
#354=(
NAMED_UNIT(*)
SI_UNIT($,.STERADIAN.)
SOLID_ANGLE_UNIT()
);
#355=SHAPE_DEFINITION_REPRESENTATION(#356,#357);
#356=PRODUCT_DEFINITION_SHAPE('',$,#359);
#357=SHAPE_REPRESENTATION('',(#195),#349);
#358=PRODUCT_DEFINITION_CONTEXT('part definition',#363,'design');
#359=PRODUCT_DEFINITION('403538557',
'403538557 D\X\E4mpfungsplatte f\X\FCr Teller 45',#360,#358);
#360=PRODUCT_DEFINITION_FORMATION('',$,#365);
#361=PRODUCT_RELATED_PRODUCT_CATEGORY(
'403538557 D\X\E4mpfungsplatte f\X\FCr Teller 45',
'403538557 D\X\E4mpfungsplatte f\X\FCr Teller 45',(#365));
#362=APPLICATION_PROTOCOL_DEFINITION('international standard',
'automotive_design',2009,#363);
#363=APPLICATION_CONTEXT(
'Core Data for Automotive Mechanical Design Process');
#364=PRODUCT_CONTEXT('part definition',#363,'mechanical');
#365=PRODUCT('403538557','403538557 D\X\E4mpfungsplatte f\X\FCr Teller
 45','D\X\E4mpfungsplatte f\X\FCr Teller 45',(#364));
#366=PRESENTATION_STYLE_ASSIGNMENT((#367));
#367=SURFACE_STYLE_USAGE(.BOTH.,#370);
#368=SURFACE_STYLE_RENDERING_WITH_PROPERTIES($,#374,(#369));
#369=SURFACE_STYLE_TRANSPARENT(0.);
#370=SURFACE_SIDE_STYLE('',(#371,#368));
#371=SURFACE_STYLE_FILL_AREA(#372);
#372=FILL_AREA_STYLE('',(#373));
#373=FILL_AREA_STYLE_COLOUR('',#374);
#374=COLOUR_RGB('',0.,0.,0.);
ENDSEC;
END-ISO-10303-21;
