ISO-10303-21;
HEADER;
/* Generated by software containing ST-Developer
 * from STEP Tools, Inc. (www.steptools.com) 
 */
/* OPTION: using custom renumber hook */

FILE_DESCRIPTION(
/* description */ ('STEP AP214'),
/* implementation_level */ '2;1');

FILE_NAME(
/* name */ '093BA14020',
/* time_stamp */ '2022-07-08T15:00:23+02:00',
/* author */ ('License CC BY-ND 4.0'),
/* organization */ ('CADENAS'),
/* preprocessor_version */ 'ST-DEVELOPER v18.102',
/* originating_system */ 'PARTsolutions',
/* authorisation */ '  ');

FILE_SCHEMA (('AUTOMOTIVE_DESIGN {1 0 10303 214 3 1 1}'));
ENDSEC;

DATA;
#10=PROPERTY_DEFINITION_REPRESENTATION(#14,#12);
#11=PROPERTY_DEFINITION_REPRESENTATION(#15,#13);
#12=REPRESENTATION('',(#16),#498);
#13=REPRESENTATION('',(#17),#498);
#14=PROPERTY_DEFINITION('pmi validation property','',#503);
#15=PROPERTY_DEFINITION('pmi validation property','',#503);
#16=VALUE_REPRESENTATION_ITEM('number of annotations',COUNT_MEASURE(0.));
#17=VALUE_REPRESENTATION_ITEM('number of views',COUNT_MEASURE(0.));
#18=SHAPE_REPRESENTATION_RELATIONSHIP('','',#304,#19);
#19=ADVANCED_BREP_SHAPE_REPRESENTATION('',(#302),#498);
#20=ELLIPSE('',#328,8.03055898500484,8.);
#21=PLANE('',#312);
#22=PLANE('',#313);
#23=PLANE('',#314);
#24=PLANE('',#317);
#25=PLANE('',#321);
#26=PLANE('',#327);
#27=PLANE('',#329);
#28=PLANE('',#330);
#29=PLANE('',#335);
#30=LINE('',#429,#51);
#31=LINE('',#433,#52);
#32=LINE('',#435,#53);
#33=LINE('',#437,#54);
#34=LINE('',#439,#55);
#35=LINE('',#441,#56);
#36=LINE('',#443,#57);
#37=LINE('',#445,#58);
#38=LINE('',#451,#59);
#39=LINE('',#453,#60);
#40=LINE('',#455,#61);
#41=LINE('',#457,#62);
#42=LINE('',#459,#63);
#43=LINE('',#461,#64);
#44=LINE('',#465,#65);
#45=LINE('',#473,#66);
#46=LINE('',#475,#67);
#47=LINE('',#477,#68);
#48=LINE('',#481,#69);
#49=LINE('',#487,#70);
#50=LINE('',#488,#71);
#51=VECTOR('',#348,1000.);
#52=VECTOR('',#351,1000.);
#53=VECTOR('',#354,1000.);
#54=VECTOR('',#355,1000.);
#55=VECTOR('',#356,1000.);
#56=VECTOR('',#359,1000.);
#57=VECTOR('',#360,1000.);
#58=VECTOR('',#361,1000.);
#59=VECTOR('',#368,1000.);
#60=VECTOR('',#369,1000.);
#61=VECTOR('',#370,1000.);
#62=VECTOR('',#373,1000.);
#63=VECTOR('',#374,1000.);
#64=VECTOR('',#375,1000.);
#65=VECTOR('',#380,1000.);
#66=VECTOR('',#389,1000.);
#67=VECTOR('',#390,1000.);
#68=VECTOR('',#391,1000.);
#69=VECTOR('',#396,1000.);
#70=VECTOR('',#403,1000.);
#71=VECTOR('',#404,1000.);
#72=ORIENTED_EDGE('',*,*,#142,.F.);
#73=ORIENTED_EDGE('',*,*,#143,.T.);
#74=ORIENTED_EDGE('',*,*,#144,.T.);
#75=ORIENTED_EDGE('',*,*,#145,.F.);
#76=ORIENTED_EDGE('',*,*,#146,.F.);
#77=ORIENTED_EDGE('',*,*,#147,.T.);
#78=ORIENTED_EDGE('',*,*,#148,.T.);
#79=ORIENTED_EDGE('',*,*,#149,.F.);
#80=ORIENTED_EDGE('',*,*,#150,.F.);
#81=ORIENTED_EDGE('',*,*,#145,.T.);
#82=ORIENTED_EDGE('',*,*,#142,.T.);
#83=ORIENTED_EDGE('',*,*,#151,.T.);
#84=ORIENTED_EDGE('',*,*,#152,.F.);
#85=ORIENTED_EDGE('',*,*,#153,.F.);
#86=ORIENTED_EDGE('',*,*,#149,.T.);
#87=ORIENTED_EDGE('',*,*,#154,.T.);
#88=ORIENTED_EDGE('',*,*,#155,.T.);
#89=ORIENTED_EDGE('',*,*,#156,.T.);
#90=ORIENTED_EDGE('',*,*,#157,.F.);
#91=ORIENTED_EDGE('',*,*,#158,.F.);
#92=ORIENTED_EDGE('',*,*,#152,.T.);
#93=ORIENTED_EDGE('',*,*,#159,.T.);
#94=ORIENTED_EDGE('',*,*,#160,.F.);
#95=ORIENTED_EDGE('',*,*,#161,.F.);
#96=ORIENTED_EDGE('',*,*,#157,.T.);
#97=ORIENTED_EDGE('',*,*,#162,.T.);
#98=ORIENTED_EDGE('',*,*,#163,.F.);
#99=ORIENTED_EDGE('',*,*,#164,.F.);
#100=ORIENTED_EDGE('',*,*,#160,.T.);
#101=ORIENTED_EDGE('',*,*,#165,.F.);
#102=ORIENTED_EDGE('',*,*,#166,.F.);
#103=ORIENTED_EDGE('',*,*,#167,.T.);
#104=ORIENTED_EDGE('',*,*,#168,.F.);
#105=ORIENTED_EDGE('',*,*,#169,.F.);
#106=ORIENTED_EDGE('',*,*,#163,.T.);
#107=ORIENTED_EDGE('',*,*,#170,.F.);
#108=ORIENTED_EDGE('',*,*,#171,.F.);
#109=ORIENTED_EDGE('',*,*,#172,.T.);
#110=ORIENTED_EDGE('',*,*,#168,.T.);
#111=ORIENTED_EDGE('',*,*,#173,.F.);
#112=ORIENTED_EDGE('',*,*,#174,.T.);
#113=ORIENTED_EDGE('',*,*,#147,.F.);
#114=ORIENTED_EDGE('',*,*,#175,.F.);
#115=ORIENTED_EDGE('',*,*,#171,.T.);
#116=ORIENTED_EDGE('',*,*,#146,.T.);
#117=ORIENTED_EDGE('',*,*,#150,.T.);
#118=ORIENTED_EDGE('',*,*,#153,.T.);
#119=ORIENTED_EDGE('',*,*,#158,.T.);
#120=ORIENTED_EDGE('',*,*,#161,.T.);
#121=ORIENTED_EDGE('',*,*,#164,.T.);
#122=ORIENTED_EDGE('',*,*,#169,.T.);
#123=ORIENTED_EDGE('',*,*,#172,.F.);
#124=ORIENTED_EDGE('',*,*,#175,.T.);
#125=ORIENTED_EDGE('',*,*,#144,.F.);
#126=ORIENTED_EDGE('',*,*,#174,.F.);
#127=ORIENTED_EDGE('',*,*,#170,.T.);
#128=ORIENTED_EDGE('',*,*,#167,.F.);
#129=ORIENTED_EDGE('',*,*,#162,.F.);
#130=ORIENTED_EDGE('',*,*,#159,.F.);
#131=ORIENTED_EDGE('',*,*,#156,.F.);
#132=ORIENTED_EDGE('',*,*,#151,.F.);
#133=ORIENTED_EDGE('',*,*,#148,.F.);
#134=ORIENTED_EDGE('',*,*,#155,.F.);
#135=ORIENTED_EDGE('',*,*,#166,.T.);
#136=ORIENTED_EDGE('',*,*,#154,.F.);
#137=ORIENTED_EDGE('',*,*,#165,.T.);
#138=ORIENTED_EDGE('',*,*,#176,.F.);
#139=ORIENTED_EDGE('',*,*,#173,.T.);
#140=ORIENTED_EDGE('',*,*,#143,.F.);
#141=ORIENTED_EDGE('',*,*,#176,.T.);
#142=EDGE_CURVE('',#177,#177,#203,.T.);
#143=EDGE_CURVE('',#178,#178,#204,.T.);
#144=EDGE_CURVE('',#179,#180,#205,.T.);
#145=EDGE_CURVE('',#181,#180,#30,.T.);
#146=EDGE_CURVE('',#182,#181,#206,.T.);
#147=EDGE_CURVE('',#182,#179,#31,.T.);
#148=EDGE_CURVE('',#180,#183,#32,.T.);
#149=EDGE_CURVE('',#184,#183,#33,.T.);
#150=EDGE_CURVE('',#181,#184,#34,.T.);
#151=EDGE_CURVE('',#183,#185,#35,.T.);
#152=EDGE_CURVE('',#186,#185,#36,.T.);
#153=EDGE_CURVE('',#184,#186,#37,.T.);
#154=EDGE_CURVE('',#187,#187,#207,.T.);
#155=EDGE_CURVE('',#188,#188,#208,.T.);
#156=EDGE_CURVE('',#185,#189,#38,.T.);
#157=EDGE_CURVE('',#190,#189,#39,.T.);
#158=EDGE_CURVE('',#186,#190,#40,.T.);
#159=EDGE_CURVE('',#189,#191,#41,.T.);
#160=EDGE_CURVE('',#192,#191,#42,.T.);
#161=EDGE_CURVE('',#190,#192,#43,.T.);
#162=EDGE_CURVE('',#191,#193,#209,.T.);
#163=EDGE_CURVE('',#194,#193,#44,.T.);
#164=EDGE_CURVE('',#192,#194,#210,.T.);
#165=EDGE_CURVE('',#195,#195,#211,.F.);
#166=EDGE_CURVE('',#196,#196,#212,.F.);
#167=EDGE_CURVE('',#193,#197,#45,.T.);
#168=EDGE_CURVE('',#198,#197,#46,.T.);
#169=EDGE_CURVE('',#194,#198,#47,.T.);
#170=EDGE_CURVE('',#199,#197,#213,.T.);
#171=EDGE_CURVE('',#200,#199,#48,.T.);
#172=EDGE_CURVE('',#200,#198,#214,.T.);
#173=EDGE_CURVE('',#201,#201,#20,.F.);
#174=EDGE_CURVE('',#199,#179,#49,.T.);
#175=EDGE_CURVE('',#200,#182,#50,.T.);
#176=EDGE_CURVE('',#202,#202,#215,.T.);
#177=VERTEX_POINT('',#422);
#178=VERTEX_POINT('',#424);
#179=VERTEX_POINT('',#427);
#180=VERTEX_POINT('',#428);
#181=VERTEX_POINT('',#430);
#182=VERTEX_POINT('',#432);
#183=VERTEX_POINT('',#436);
#184=VERTEX_POINT('',#438);
#185=VERTEX_POINT('',#442);
#186=VERTEX_POINT('',#444);
#187=VERTEX_POINT('',#448);
#188=VERTEX_POINT('',#450);
#189=VERTEX_POINT('',#452);
#190=VERTEX_POINT('',#454);
#191=VERTEX_POINT('',#458);
#192=VERTEX_POINT('',#460);
#193=VERTEX_POINT('',#464);
#194=VERTEX_POINT('',#466);
#195=VERTEX_POINT('',#470);
#196=VERTEX_POINT('',#472);
#197=VERTEX_POINT('',#474);
#198=VERTEX_POINT('',#476);
#199=VERTEX_POINT('',#480);
#200=VERTEX_POINT('',#482);
#201=VERTEX_POINT('',#486);
#202=VERTEX_POINT('',#495);
#203=CIRCLE('',#307,4.5);
#204=CIRCLE('',#308,4.5);
#205=CIRCLE('',#310,4.);
#206=CIRCLE('',#311,4.);
#207=CIRCLE('',#315,2.75);
#208=CIRCLE('',#316,2.75);
#209=CIRCLE('',#319,4.00000000000003);
#210=CIRCLE('',#320,4.00000000000003);
#211=CIRCLE('',#322,2.75);
#212=CIRCLE('',#323,2.75);
#213=CIRCLE('',#325,4.);
#214=CIRCLE('',#326,4.);
#215=CIRCLE('',#334,8.);
#216=EDGE_LOOP('',(#72));
#217=EDGE_LOOP('',(#73));
#218=EDGE_LOOP('',(#74,#75,#76,#77));
#219=EDGE_LOOP('',(#78,#79,#80,#81));
#220=EDGE_LOOP('',(#82));
#221=EDGE_LOOP('',(#83,#84,#85,#86));
#222=EDGE_LOOP('',(#87));
#223=EDGE_LOOP('',(#88));
#224=EDGE_LOOP('',(#89,#90,#91,#92));
#225=EDGE_LOOP('',(#93,#94,#95,#96));
#226=EDGE_LOOP('',(#97,#98,#99,#100));
#227=EDGE_LOOP('',(#101));
#228=EDGE_LOOP('',(#102));
#229=EDGE_LOOP('',(#103,#104,#105,#106));
#230=EDGE_LOOP('',(#107,#108,#109,#110));
#231=EDGE_LOOP('',(#111));
#232=EDGE_LOOP('',(#112,#113,#114,#115));
#233=EDGE_LOOP('',(#116,#117,#118,#119,#120,#121,#122,#123,#124));
#234=EDGE_LOOP('',(#125,#126,#127,#128,#129,#130,#131,#132,#133));
#235=EDGE_LOOP('',(#134));
#236=EDGE_LOOP('',(#135));
#237=EDGE_LOOP('',(#136));
#238=EDGE_LOOP('',(#137));
#239=EDGE_LOOP('',(#138));
#240=EDGE_LOOP('',(#139));
#241=EDGE_LOOP('',(#140));
#242=EDGE_LOOP('',(#141));
#243=FACE_BOUND('',#216,.T.);
#244=FACE_BOUND('',#217,.T.);
#245=FACE_BOUND('',#218,.T.);
#246=FACE_BOUND('',#219,.T.);
#247=FACE_BOUND('',#220,.T.);
#248=FACE_BOUND('',#221,.T.);
#249=FACE_BOUND('',#222,.T.);
#250=FACE_BOUND('',#223,.T.);
#251=FACE_BOUND('',#224,.T.);
#252=FACE_BOUND('',#225,.T.);
#253=FACE_BOUND('',#226,.T.);
#254=FACE_BOUND('',#227,.T.);
#255=FACE_BOUND('',#228,.T.);
#256=FACE_BOUND('',#229,.T.);
#257=FACE_BOUND('',#230,.T.);
#258=FACE_BOUND('',#231,.T.);
#259=FACE_BOUND('',#232,.T.);
#260=FACE_BOUND('',#233,.T.);
#261=FACE_BOUND('',#234,.T.);
#262=FACE_BOUND('',#235,.T.);
#263=FACE_BOUND('',#236,.T.);
#264=FACE_BOUND('',#237,.T.);
#265=FACE_BOUND('',#238,.T.);
#266=FACE_BOUND('',#239,.T.);
#267=FACE_BOUND('',#240,.T.);
#268=FACE_BOUND('',#241,.T.);
#269=FACE_BOUND('',#242,.T.);
#270=CYLINDRICAL_SURFACE('',#306,4.5);
#271=CYLINDRICAL_SURFACE('',#309,4.);
#272=CYLINDRICAL_SURFACE('',#318,4.00000000000003);
#273=CYLINDRICAL_SURFACE('',#324,4.);
#274=CYLINDRICAL_SURFACE('',#331,2.75);
#275=CYLINDRICAL_SURFACE('',#332,2.75);
#276=CYLINDRICAL_SURFACE('',#333,8.);
#277=ADVANCED_FACE('',(#243,#244),#270,.F.);
#278=ADVANCED_FACE('',(#245),#271,.T.);
#279=ADVANCED_FACE('',(#246),#21,.F.);
#280=ADVANCED_FACE('',(#247,#248),#22,.F.);
#281=ADVANCED_FACE('',(#249,#250,#251),#23,.F.);
#282=ADVANCED_FACE('',(#252),#24,.F.);
#283=ADVANCED_FACE('',(#253),#272,.T.);
#284=ADVANCED_FACE('',(#254,#255,#256),#25,.F.);
#285=ADVANCED_FACE('',(#257),#273,.F.);
#286=ADVANCED_FACE('',(#258,#259),#26,.F.);
#287=ADVANCED_FACE('',(#260),#27,.T.);
#288=ADVANCED_FACE('',(#261),#28,.F.);
#289=ADVANCED_FACE('',(#262,#263),#274,.F.);
#290=ADVANCED_FACE('',(#264,#265),#275,.F.);
#291=ADVANCED_FACE('',(#266,#267),#276,.F.);
#292=ADVANCED_FACE('',(#268,#269),#29,.T.);
#293=CLOSED_SHELL('',(#277,#278,#279,#280,#281,#282,#283,#284,#285,#286,
#287,#288,#289,#290,#291,#292));
#294=STYLED_ITEM('',(#295),#302);
#295=PRESENTATION_STYLE_ASSIGNMENT((#296));
#296=SURFACE_STYLE_USAGE(.BOTH.,#297);
#297=SURFACE_SIDE_STYLE('',(#298));
#298=SURFACE_STYLE_FILL_AREA(#299);
#299=FILL_AREA_STYLE('',(#300));
#300=FILL_AREA_STYLE_COLOUR('',#301);
#301=COLOUR_RGB('',0.792156875133514,0.792156875133514,0.792156875133514);
#302=MANIFOLD_SOLID_BREP('093BA14020',#293);
#303=SHAPE_DEFINITION_REPRESENTATION(#503,#304);
#304=SHAPE_REPRESENTATION('093BA14020',(#305),#498);
#305=AXIS2_PLACEMENT_3D('',#419,#336,#337);
#306=AXIS2_PLACEMENT_3D('',#420,#338,#339);
#307=AXIS2_PLACEMENT_3D('',#421,#340,#341);
#308=AXIS2_PLACEMENT_3D('',#423,#342,#343);
#309=AXIS2_PLACEMENT_3D('',#425,#344,#345);
#310=AXIS2_PLACEMENT_3D('',#426,#346,#347);
#311=AXIS2_PLACEMENT_3D('',#431,#349,#350);
#312=AXIS2_PLACEMENT_3D('',#434,#352,#353);
#313=AXIS2_PLACEMENT_3D('',#440,#357,#358);
#314=AXIS2_PLACEMENT_3D('',#446,#362,#363);
#315=AXIS2_PLACEMENT_3D('',#447,#364,#365);
#316=AXIS2_PLACEMENT_3D('',#449,#366,#367);
#317=AXIS2_PLACEMENT_3D('',#456,#371,#372);
#318=AXIS2_PLACEMENT_3D('',#462,#376,#377);
#319=AXIS2_PLACEMENT_3D('',#463,#378,#379);
#320=AXIS2_PLACEMENT_3D('',#467,#381,#382);
#321=AXIS2_PLACEMENT_3D('',#468,#383,#384);
#322=AXIS2_PLACEMENT_3D('',#469,#385,#386);
#323=AXIS2_PLACEMENT_3D('',#471,#387,#388);
#324=AXIS2_PLACEMENT_3D('',#478,#392,#393);
#325=AXIS2_PLACEMENT_3D('',#479,#394,#395);
#326=AXIS2_PLACEMENT_3D('',#483,#397,#398);
#327=AXIS2_PLACEMENT_3D('',#484,#399,#400);
#328=AXIS2_PLACEMENT_3D('',#485,#401,#402);
#329=AXIS2_PLACEMENT_3D('',#489,#405,#406);
#330=AXIS2_PLACEMENT_3D('',#490,#407,#408);
#331=AXIS2_PLACEMENT_3D('',#491,#409,#410);
#332=AXIS2_PLACEMENT_3D('',#492,#411,#412);
#333=AXIS2_PLACEMENT_3D('',#493,#413,#414);
#334=AXIS2_PLACEMENT_3D('',#494,#415,#416);
#335=AXIS2_PLACEMENT_3D('',#496,#417,#418);
#336=DIRECTION('',(0.,0.,1.));
#337=DIRECTION('',(1.,0.,0.));
#338=DIRECTION('',(0.,-1.,0.));
#339=DIRECTION('',(0.,0.,-1.));
#340=DIRECTION('',(0.,1.,0.));
#341=DIRECTION('',(1.,0.,0.));
#342=DIRECTION('',(0.,1.,0.));
#343=DIRECTION('',(0.,0.,1.));
#344=DIRECTION('',(-1.,0.,0.));
#345=DIRECTION('',(0.,0.,1.));
#346=DIRECTION('',(1.,0.,0.));
#347=DIRECTION('',(0.,0.,-1.));
#348=DIRECTION('',(-1.,0.,0.));
#349=DIRECTION('',(1.,0.,0.));
#350=DIRECTION('',(0.,0.,-1.));
#351=DIRECTION('',(-1.,0.,0.));
#352=DIRECTION('',(0.,0.,-1.));
#353=DIRECTION('',(-1.,0.,0.));
#354=DIRECTION('',(0.,-1.,0.));
#355=DIRECTION('',(-1.,0.,0.));
#356=DIRECTION('',(0.,-1.,0.));
#357=DIRECTION('',(0.,1.,0.));
#358=DIRECTION('',(0.,0.,1.));
#359=DIRECTION('',(0.,0.,-1.));
#360=DIRECTION('',(-1.,0.,0.));
#361=DIRECTION('',(0.,0.,-1.));
#362=DIRECTION('',(0.,0.,1.));
#363=DIRECTION('',(1.,0.,0.));
#364=DIRECTION('',(0.,0.,1.));
#365=DIRECTION('',(1.,0.,0.));
#366=DIRECTION('',(0.,0.,1.));
#367=DIRECTION('',(1.,0.,0.));
#368=DIRECTION('',(0.,1.,0.));
#369=DIRECTION('',(-1.,0.,0.));
#370=DIRECTION('',(0.,1.,0.));
#371=DIRECTION('',(0.,-1.,0.));
#372=DIRECTION('',(0.,0.,-1.));
#373=DIRECTION('',(0.,0.,1.));
#374=DIRECTION('',(-1.,0.,0.));
#375=DIRECTION('',(0.,0.,1.));
#376=DIRECTION('',(-1.,0.,0.));
#377=DIRECTION('',(0.,0.,1.));
#378=DIRECTION('',(1.,0.,0.));
#379=DIRECTION('',(0.,0.,-1.));
#380=DIRECTION('',(-1.,0.,0.));
#381=DIRECTION('',(1.,0.,0.));
#382=DIRECTION('',(0.,0.,-1.));
#383=DIRECTION('',(0.,0.,-1.));
#384=DIRECTION('',(-1.,0.,0.));
#385=DIRECTION('',(0.,0.,-1.));
#386=DIRECTION('',(-1.,0.,0.));
#387=DIRECTION('',(0.,0.,-1.));
#388=DIRECTION('',(-1.,0.,0.));
#389=DIRECTION('',(0.,-1.,0.));
#390=DIRECTION('',(-1.,0.,0.));
#391=DIRECTION('',(0.,-1.,0.));
#392=DIRECTION('',(-1.,0.,0.));
#393=DIRECTION('',(0.,0.,1.));
#394=DIRECTION('',(1.,0.,0.));
#395=DIRECTION('',(0.,0.,-1.));
#396=DIRECTION('',(-1.,0.,0.));
#397=DIRECTION('',(1.,0.,0.));
#398=DIRECTION('',(0.,0.,-1.));
#399=DIRECTION('',(0.,-0.996194662779776,-0.0871561463643705));
#400=DIRECTION('',(0.,0.0871561463643705,-0.996194662779776));
#401=DIRECTION('',(0.,-0.996194662779776,-0.0871561463643705));
#402=DIRECTION('',(0.,-0.0871561463643705,0.996194662779776));
#403=DIRECTION('',(0.,-0.0871561463643705,0.996194662779776));
#404=DIRECTION('',(0.,-0.0871561463643705,0.996194662779776));
#405=DIRECTION('',(1.,0.,0.));
#406=DIRECTION('',(0.,0.,-1.));
#407=DIRECTION('',(1.,0.,0.));
#408=DIRECTION('',(0.,0.,-1.));
#409=DIRECTION('',(0.,0.,-1.));
#410=DIRECTION('',(-1.,0.,0.));
#411=DIRECTION('',(0.,0.,-1.));
#412=DIRECTION('',(-1.,0.,0.));
#413=DIRECTION('',(0.,-1.,0.));
#414=DIRECTION('',(0.,0.,-1.));
#415=DIRECTION('',(0.,1.,0.));
#416=DIRECTION('',(1.,0.,0.));
#417=DIRECTION('',(0.,1.,0.));
#418=DIRECTION('',(0.,0.,1.));
#419=CARTESIAN_POINT('',(0.,0.,0.));
#420=CARTESIAN_POINT('',(0.,10.,36.));
#421=CARTESIAN_POINT('',(0.,0.,36.));
#422=CARTESIAN_POINT('',(4.5,0.,36.));
#423=CARTESIAN_POINT('',(0.,7.,36.));
#424=CARTESIAN_POINT('',(0.,7.,40.5));
#425=CARTESIAN_POINT('',(9.,2.3347,52.));
#426=CARTESIAN_POINT('',(-9.,2.3347,52.));
#427=CARTESIAN_POINT('',(-9.,6.31947865111911,52.3486245854575));
#428=CARTESIAN_POINT('',(-9.,2.3347,56.));
#429=CARTESIAN_POINT('',(9.,2.3347,56.));
#430=CARTESIAN_POINT('',(9.,2.3347,56.));
#431=CARTESIAN_POINT('',(9.,2.3347,52.));
#432=CARTESIAN_POINT('',(9.,6.31947865111911,52.3486245854575));
#433=CARTESIAN_POINT('',(9.,6.31947865111911,52.3486245854575));
#434=CARTESIAN_POINT('',(9.,2.3347,56.));
#435=CARTESIAN_POINT('',(-9.,2.3347,56.));
#436=CARTESIAN_POINT('',(-9.,0.,56.));
#437=CARTESIAN_POINT('',(9.,0.,56.));
#438=CARTESIAN_POINT('',(9.,0.,56.));
#439=CARTESIAN_POINT('',(9.,2.3347,56.));
#440=CARTESIAN_POINT('',(9.,0.,56.));
#441=CARTESIAN_POINT('',(-9.,0.,56.));
#442=CARTESIAN_POINT('',(-9.,0.,0.));
#443=CARTESIAN_POINT('',(9.,0.,0.));
#444=CARTESIAN_POINT('',(9.,0.,0.));
#445=CARTESIAN_POINT('',(9.,0.,56.));
#446=CARTESIAN_POINT('',(9.,0.,0.));
#447=CARTESIAN_POINT('',(0.,80.,0.));
#448=CARTESIAN_POINT('',(2.75,80.,0.));
#449=CARTESIAN_POINT('',(0.,120.,0.));
#450=CARTESIAN_POINT('',(2.75,120.,0.));
#451=CARTESIAN_POINT('',(-9.,0.,0.));
#452=CARTESIAN_POINT('',(-9.,140.,0.));
#453=CARTESIAN_POINT('',(9.,140.,0.));
#454=CARTESIAN_POINT('',(9.,140.,0.));
#455=CARTESIAN_POINT('',(9.,0.,0.));
#456=CARTESIAN_POINT('',(9.,140.,0.));
#457=CARTESIAN_POINT('',(-9.,140.,0.));
#458=CARTESIAN_POINT('',(-9.,140.,2.));
#459=CARTESIAN_POINT('',(9.,140.,2.));
#460=CARTESIAN_POINT('',(9.,140.,2.));
#461=CARTESIAN_POINT('',(9.,140.,0.));
#462=CARTESIAN_POINT('',(9.,136.,1.99999999999996));
#463=CARTESIAN_POINT('',(-9.,136.,1.99999999999996));
#464=CARTESIAN_POINT('',(-9.,136.,5.99999999999999));
#465=CARTESIAN_POINT('',(9.,136.,5.99999999999999));
#466=CARTESIAN_POINT('',(9.,136.,5.99999999999999));
#467=CARTESIAN_POINT('',(9.,136.,1.99999999999996));
#468=CARTESIAN_POINT('',(9.,136.,6.));
#469=CARTESIAN_POINT('',(0.,80.,6.));
#470=CARTESIAN_POINT('',(-2.75,80.,6.));
#471=CARTESIAN_POINT('',(0.,120.,6.));
#472=CARTESIAN_POINT('',(-2.75,120.,6.));
#473=CARTESIAN_POINT('',(-9.,136.,6.));
#474=CARTESIAN_POINT('',(-9.,14.0398,6.));
#475=CARTESIAN_POINT('',(9.,14.0398,6.));
#476=CARTESIAN_POINT('',(9.,14.0398,6.));
#477=CARTESIAN_POINT('',(9.,136.,6.));
#478=CARTESIAN_POINT('',(9.,14.0398,10.));
#479=CARTESIAN_POINT('',(-9.,14.0398,10.));
#480=CARTESIAN_POINT('',(-9.,10.0550213488809,9.65137541454252));
#481=CARTESIAN_POINT('',(9.,10.0550213488809,9.65137541454252));
#482=CARTESIAN_POINT('',(9.,10.0550213488809,9.65137541454252));
#483=CARTESIAN_POINT('',(9.,14.0398,10.));
#484=CARTESIAN_POINT('',(9.,10.0550213488809,9.65137541454252));
#485=CARTESIAN_POINT('',(0.,7.74980464107201,36.));
#486=CARTESIAN_POINT('',(0.,7.04989206678721,44.));
#487=CARTESIAN_POINT('',(-9.,10.0550213488809,9.65137541454252));
#488=CARTESIAN_POINT('',(9.,10.0550213488809,9.65137541454252));
#489=CARTESIAN_POINT('',(9.,2.3347,52.));
#490=CARTESIAN_POINT('',(-9.,2.3347,52.));
#491=CARTESIAN_POINT('',(0.,120.,10.));
#492=CARTESIAN_POINT('',(0.,80.,10.));
#493=CARTESIAN_POINT('',(0.,17.,36.));
#494=CARTESIAN_POINT('',(0.,7.,36.));
#495=CARTESIAN_POINT('',(8.,7.,36.));
#496=CARTESIAN_POINT('',(0.,7.,36.));
#497=MECHANICAL_DESIGN_GEOMETRIC_PRESENTATION_REPRESENTATION('',(#294),
#498);
#498=(
GEOMETRIC_REPRESENTATION_CONTEXT(3)
GLOBAL_UNCERTAINTY_ASSIGNED_CONTEXT((#499))
GLOBAL_UNIT_ASSIGNED_CONTEXT((#502,#501,#500))
REPRESENTATION_CONTEXT('093BA14020','TOP_LEVEL_ASSEMBLY_PART')
);
#499=UNCERTAINTY_MEASURE_WITH_UNIT(LENGTH_MEASURE(0.005),#502,
'DISTANCE_ACCURACY_VALUE','Maximum Tolerance applied to model');
#500=(
NAMED_UNIT(*)
SI_UNIT($,.STERADIAN.)
SOLID_ANGLE_UNIT()
);
#501=(
NAMED_UNIT(*)
PLANE_ANGLE_UNIT()
SI_UNIT($,.RADIAN.)
);
#502=(
LENGTH_UNIT()
NAMED_UNIT(*)
SI_UNIT(.MILLI.,.METRE.)
);
#503=PRODUCT_DEFINITION_SHAPE('','',#504);
#504=PRODUCT_DEFINITION('','',#506,#505);
#505=PRODUCT_DEFINITION_CONTEXT('',#512,'design');
#506=PRODUCT_DEFINITION_FORMATION_WITH_SPECIFIED_SOURCE('','',#508,
 .NOT_KNOWN.);
#507=PRODUCT_RELATED_PRODUCT_CATEGORY('','',(#508));
#508=PRODUCT('093BA14020','093BA14020','093BA14020',(#510));
#509=PRODUCT_CATEGORY('','');
#510=PRODUCT_CONTEXT('',#512,'mechanical');
#511=APPLICATION_PROTOCOL_DEFINITION('international standard',
'automotive_design',2010,#512);
#512=APPLICATION_CONTEXT(
'core data for automotive mechanical design processes');
ENDSEC;
END-ISO-10303-21;
