ISO-10303-21;
HEADER;
/* Generated by software containing ST-Developer
 * from STEP Tools, Inc. (www.steptools.com) 
 */

FILE_DESCRIPTION(
/* description */ ('Teller 60 mit Anti-Slip-Platte'),
/* implementation_level */ '2;1');

FILE_NAME(
/* name */ 
'T:\\Produktinformationen\\MT\\I40\\3D-Files I40\\Teller f\X\FCr feste
 Stellf\X\FCsse\\203600403 Teller 60 mit Anti-Slip-Platte.stp',
/* time_stamp */ '2020-02-05T09:13:51+01:00',
/* author */ ('wheldmann'),
/* organization */ (''),
/* preprocessor_version */ 'ST-DEVELOPER v17.2',
/* originating_system */ 'Autodesk Inventor 2019',
/* authorisation */ ' ');

FILE_SCHEMA (('AUTOMOTIVE_DESIGN { 1 0 10303 214 3 1 1 }'));
ENDSEC;

DATA;
#10=MECHANICAL_DESIGN_GEOMETRIC_PRESENTATION_REPRESENTATION('',(#13),#463);
#11=SHAPE_REPRESENTATION_RELATIONSHIP('SRR','None',#470,#12);
#12=ADVANCED_BREP_SHAPE_REPRESENTATION('',(#14),#462);
#13=STYLED_ITEM('',(#479),#14);
#14=MANIFOLD_SOLID_BREP('Volumenk\X\F6rper2',#224);
#15=TOROIDAL_SURFACE('',#278,24.0816461652,5.);
#16=(
BOUNDED_SURFACE()
B_SPLINE_SURFACE(2,2,((#421,#422,#423,#424,#425,#426,#427,#428,#429),(#430,
#431,#432,#433,#434,#435,#436,#437,#438),(#439,#440,#441,#442,#443,#444,
#445,#446,#447)),.UNSPECIFIED.,.F.,.T.,.F.)
B_SPLINE_SURFACE_WITH_KNOTS((3,3),(3,2,2,2,3),(-1.19183779912885,-0.877603238940859),
(-3.14159265358979,-1.5707963267949,0.,1.5707963267949,3.14159265358979),
 .UNSPECIFIED.)
GEOMETRIC_REPRESENTATION_ITEM()
RATIONAL_B_SPLINE_SURFACE(((1.,0.707106781186548,1.,0.707106781186548,1.,
0.707106781186548,1.,0.707106781186548,1.),(0.987682450542066,0.698396958437242,
0.987682450542066,0.698396958437242,0.987682450542066,0.698396958437242,
0.987682450542066,0.698396958437242,0.987682450542066),(1.,0.707106781186548,
1.,0.707106781186548,1.,0.707106781186548,1.,0.707106781186548,1.)))
REPRESENTATION_ITEM('')
SURFACE()
);
#17=SPHERICAL_SURFACE('',#268,20.);
#18=CONICAL_SURFACE('',#252,29.5,0.0872664626);
#19=CONICAL_SURFACE('',#255,9.8049669231,0.1745329252);
#20=CONICAL_SURFACE('',#265,6.4975702861,0.0872664626);
#21=CONICAL_SURFACE('',#281,7.04,1.2205703007);
#22=FACE_BOUND('',#42,.T.);
#23=FACE_BOUND('',#46,.T.);
#24=PLANE('',#249);
#25=PLANE('',#260);
#26=PLANE('',#273);
#27=PLANE('',#280);
#28=FACE_OUTER_BOUND('',#40,.T.);
#29=FACE_OUTER_BOUND('',#41,.T.);
#30=FACE_OUTER_BOUND('',#43,.T.);
#31=FACE_OUTER_BOUND('',#44,.T.);
#32=FACE_OUTER_BOUND('',#45,.T.);
#33=FACE_OUTER_BOUND('',#47,.T.);
#34=FACE_OUTER_BOUND('',#48,.T.);
#35=FACE_OUTER_BOUND('',#49,.T.);
#36=FACE_OUTER_BOUND('',#50,.T.);
#37=FACE_OUTER_BOUND('',#51,.T.);
#38=FACE_OUTER_BOUND('',#52,.T.);
#39=FACE_OUTER_BOUND('',#53,.T.);
#40=EDGE_LOOP('',(#147,#148,#149,#150,#151,#152));
#41=EDGE_LOOP('',(#153,#154));
#42=EDGE_LOOP('',(#155,#156));
#43=EDGE_LOOP('',(#157,#158,#159,#160,#161,#162));
#44=EDGE_LOOP('',(#163,#164,#165,#166,#167,#168));
#45=EDGE_LOOP('',(#169,#170));
#46=EDGE_LOOP('',(#171,#172));
#47=EDGE_LOOP('',(#173,#174,#175,#176,#177,#178));
#48=EDGE_LOOP('',(#179,#180,#181,#182,#183,#184,#185));
#49=EDGE_LOOP('',(#186,#187));
#50=EDGE_LOOP('',(#188,#189,#190,#191,#192,#193,#194,#195));
#51=EDGE_LOOP('',(#196,#197,#198,#199,#200,#201,#202));
#52=EDGE_LOOP('',(#203,#204));
#53=EDGE_LOOP('',(#205,#206,#207,#208,#209,#210));
#54=LINE('',#371,#59);
#55=LINE('',#383,#60);
#56=LINE('',#393,#61);
#57=LINE('',#408,#62);
#58=LINE('',#459,#63);
#59=VECTOR('',#288,25.5);
#60=VECTOR('',#303,29.5);
#61=VECTOR('',#314,9.8049669231);
#62=VECTOR('',#331,6.4975702861);
#63=VECTOR('',#364,7.04);
#64=CIRCLE('',#245,25.5);
#65=CIRCLE('',#246,25.5);
#66=CIRCLE('',#247,25.5);
#67=CIRCLE('',#248,25.5);
#68=CIRCLE('',#250,29.5);
#69=CIRCLE('',#251,29.5);
#70=CIRCLE('',#253,29.0626194351);
#71=CIRCLE('',#254,29.0626194351);
#72=CIRCLE('',#256,9.8049669231);
#73=CIRCLE('',#257,9.8049669231);
#74=CIRCLE('',#258,11.57);
#75=CIRCLE('',#259,11.57);
#76=CIRCLE('',#261,6.4999427313);
#77=CIRCLE('',#262,6.4999427313);
#78=CIRCLE('',#263,6.4975702861);
#79=CIRCLE('',#264,6.4975702861);
#80=CIRCLE('',#266,7.04);
#81=CIRCLE('',#267,7.04);
#82=CIRCLE('',#269,11.1339930717);
#83=CIRCLE('',#270,11.1339930717);
#84=CIRCLE('',#271,20.);
#85=CIRCLE('',#272,11.1339930717);
#86=CIRCLE('',#274,59.9999999999998);
#87=CIRCLE('',#275,27.2766030367);
#88=CIRCLE('',#276,27.2766030367);
#89=CIRCLE('',#277,27.2766030367);
#90=CIRCLE('',#279,5.);
#91=VERTEX_POINT('',#367);
#92=VERTEX_POINT('',#368);
#93=VERTEX_POINT('',#370);
#94=VERTEX_POINT('',#372);
#95=VERTEX_POINT('',#377);
#96=VERTEX_POINT('',#378);
#97=VERTEX_POINT('',#382);
#98=VERTEX_POINT('',#384);
#99=VERTEX_POINT('',#388);
#100=VERTEX_POINT('',#389);
#101=VERTEX_POINT('',#392);
#102=VERTEX_POINT('',#394);
#103=VERTEX_POINT('',#398);
#104=VERTEX_POINT('',#399);
#105=VERTEX_POINT('',#402);
#106=VERTEX_POINT('',#403);
#107=VERTEX_POINT('',#407);
#108=VERTEX_POINT('',#409);
#109=VERTEX_POINT('',#413);
#110=VERTEX_POINT('',#414);
#111=VERTEX_POINT('',#416);
#112=VERTEX_POINT('',#448);
#113=VERTEX_POINT('',#450);
#114=VERTEX_POINT('',#452);
#115=EDGE_CURVE('',#91,#92,#64,.T.);
#116=EDGE_CURVE('',#92,#93,#54,.T.);
#117=EDGE_CURVE('',#94,#93,#65,.T.);
#118=EDGE_CURVE('',#93,#94,#66,.T.);
#119=EDGE_CURVE('',#92,#91,#67,.T.);
#120=EDGE_CURVE('',#95,#96,#68,.T.);
#121=EDGE_CURVE('',#96,#95,#69,.T.);
#122=EDGE_CURVE('',#96,#97,#55,.T.);
#123=EDGE_CURVE('',#97,#98,#70,.T.);
#124=EDGE_CURVE('',#98,#97,#71,.T.);
#125=EDGE_CURVE('',#99,#100,#72,.T.);
#126=EDGE_CURVE('',#100,#99,#73,.T.);
#127=EDGE_CURVE('',#100,#101,#56,.T.);
#128=EDGE_CURVE('',#101,#102,#74,.T.);
#129=EDGE_CURVE('',#102,#101,#75,.T.);
#130=EDGE_CURVE('',#103,#104,#76,.T.);
#131=EDGE_CURVE('',#104,#103,#77,.T.);
#132=EDGE_CURVE('',#105,#106,#78,.T.);
#133=EDGE_CURVE('',#106,#105,#79,.T.);
#134=EDGE_CURVE('',#106,#107,#57,.T.);
#135=EDGE_CURVE('',#107,#108,#80,.T.);
#136=EDGE_CURVE('',#108,#107,#81,.T.);
#137=EDGE_CURVE('',#109,#110,#82,.T.);
#138=EDGE_CURVE('',#111,#109,#83,.T.);
#139=EDGE_CURVE('',#111,#104,#84,.T.);
#140=EDGE_CURVE('',#110,#111,#85,.T.);
#141=EDGE_CURVE('',#110,#112,#86,.T.);
#142=EDGE_CURVE('',#113,#112,#87,.T.);
#143=EDGE_CURVE('',#114,#113,#88,.T.);
#144=EDGE_CURVE('',#112,#114,#89,.T.);
#145=EDGE_CURVE('',#97,#114,#90,.T.);
#146=EDGE_CURVE('',#99,#108,#58,.T.);
#147=ORIENTED_EDGE('',*,*,#115,.T.);
#148=ORIENTED_EDGE('',*,*,#116,.T.);
#149=ORIENTED_EDGE('',*,*,#117,.F.);
#150=ORIENTED_EDGE('',*,*,#118,.F.);
#151=ORIENTED_EDGE('',*,*,#116,.F.);
#152=ORIENTED_EDGE('',*,*,#119,.T.);
#153=ORIENTED_EDGE('',*,*,#120,.T.);
#154=ORIENTED_EDGE('',*,*,#121,.T.);
#155=ORIENTED_EDGE('',*,*,#115,.F.);
#156=ORIENTED_EDGE('',*,*,#119,.F.);
#157=ORIENTED_EDGE('',*,*,#120,.F.);
#158=ORIENTED_EDGE('',*,*,#121,.F.);
#159=ORIENTED_EDGE('',*,*,#122,.T.);
#160=ORIENTED_EDGE('',*,*,#123,.T.);
#161=ORIENTED_EDGE('',*,*,#124,.T.);
#162=ORIENTED_EDGE('',*,*,#122,.F.);
#163=ORIENTED_EDGE('',*,*,#125,.F.);
#164=ORIENTED_EDGE('',*,*,#126,.F.);
#165=ORIENTED_EDGE('',*,*,#127,.T.);
#166=ORIENTED_EDGE('',*,*,#128,.T.);
#167=ORIENTED_EDGE('',*,*,#129,.T.);
#168=ORIENTED_EDGE('',*,*,#127,.F.);
#169=ORIENTED_EDGE('',*,*,#130,.F.);
#170=ORIENTED_EDGE('',*,*,#131,.F.);
#171=ORIENTED_EDGE('',*,*,#132,.T.);
#172=ORIENTED_EDGE('',*,*,#133,.T.);
#173=ORIENTED_EDGE('',*,*,#132,.F.);
#174=ORIENTED_EDGE('',*,*,#133,.F.);
#175=ORIENTED_EDGE('',*,*,#134,.T.);
#176=ORIENTED_EDGE('',*,*,#135,.T.);
#177=ORIENTED_EDGE('',*,*,#136,.T.);
#178=ORIENTED_EDGE('',*,*,#134,.F.);
#179=ORIENTED_EDGE('',*,*,#137,.F.);
#180=ORIENTED_EDGE('',*,*,#138,.F.);
#181=ORIENTED_EDGE('',*,*,#139,.T.);
#182=ORIENTED_EDGE('',*,*,#131,.T.);
#183=ORIENTED_EDGE('',*,*,#130,.T.);
#184=ORIENTED_EDGE('',*,*,#139,.F.);
#185=ORIENTED_EDGE('',*,*,#140,.F.);
#186=ORIENTED_EDGE('',*,*,#117,.T.);
#187=ORIENTED_EDGE('',*,*,#118,.T.);
#188=ORIENTED_EDGE('',*,*,#137,.T.);
#189=ORIENTED_EDGE('',*,*,#141,.T.);
#190=ORIENTED_EDGE('',*,*,#142,.F.);
#191=ORIENTED_EDGE('',*,*,#143,.F.);
#192=ORIENTED_EDGE('',*,*,#144,.F.);
#193=ORIENTED_EDGE('',*,*,#141,.F.);
#194=ORIENTED_EDGE('',*,*,#140,.T.);
#195=ORIENTED_EDGE('',*,*,#138,.T.);
#196=ORIENTED_EDGE('',*,*,#124,.F.);
#197=ORIENTED_EDGE('',*,*,#123,.F.);
#198=ORIENTED_EDGE('',*,*,#145,.T.);
#199=ORIENTED_EDGE('',*,*,#143,.T.);
#200=ORIENTED_EDGE('',*,*,#142,.T.);
#201=ORIENTED_EDGE('',*,*,#144,.T.);
#202=ORIENTED_EDGE('',*,*,#145,.F.);
#203=ORIENTED_EDGE('',*,*,#129,.F.);
#204=ORIENTED_EDGE('',*,*,#128,.F.);
#205=ORIENTED_EDGE('',*,*,#125,.T.);
#206=ORIENTED_EDGE('',*,*,#126,.T.);
#207=ORIENTED_EDGE('',*,*,#146,.T.);
#208=ORIENTED_EDGE('',*,*,#135,.F.);
#209=ORIENTED_EDGE('',*,*,#136,.F.);
#210=ORIENTED_EDGE('',*,*,#146,.F.);
#211=CYLINDRICAL_SURFACE('',#244,25.5);
#212=ADVANCED_FACE('',(#28),#211,.T.);
#213=ADVANCED_FACE('',(#29,#22),#24,.T.);
#214=ADVANCED_FACE('',(#30),#18,.T.);
#215=ADVANCED_FACE('',(#31),#19,.F.);
#216=ADVANCED_FACE('',(#32,#23),#25,.T.);
#217=ADVANCED_FACE('',(#33),#20,.F.);
#218=ADVANCED_FACE('',(#34),#17,.F.);
#219=ADVANCED_FACE('',(#35),#26,.F.);
#220=ADVANCED_FACE('',(#36),#16,.F.);
#221=ADVANCED_FACE('',(#37),#15,.T.);
#222=ADVANCED_FACE('',(#38),#27,.F.);
#223=ADVANCED_FACE('',(#39),#21,.T.);
#224=CLOSED_SHELL('',(#212,#213,#214,#215,#216,#217,#218,#219,#220,#221,
#222,#223));
#225=DERIVED_UNIT_ELEMENT(#227,1.);
#226=DERIVED_UNIT_ELEMENT(#465,3.);
#227=(
MASS_UNIT()
NAMED_UNIT(*)
SI_UNIT($,.GRAM.)
);
#228=DERIVED_UNIT((#225,#226));
#229=MEASURE_REPRESENTATION_ITEM('density measure',
POSITIVE_RATIO_MEASURE(1.36),#228);
#230=PROPERTY_DEFINITION_REPRESENTATION(#235,#232);
#231=PROPERTY_DEFINITION_REPRESENTATION(#236,#233);
#232=REPRESENTATION('material name',(#234),#462);
#233=REPRESENTATION('density',(#229),#462);
#234=DESCRIPTIVE_REPRESENTATION_ITEM('PA glasfaserverst\X\E4rkt',
'PA glasfaserverst\X\E4rkt');
#235=PROPERTY_DEFINITION('material property','material name',#472);
#236=PROPERTY_DEFINITION('material property','density of part',#472);
#237=DATE_TIME_ROLE('creation_date');
#238=APPLIED_DATE_AND_TIME_ASSIGNMENT(#239,#237,(#472));
#239=DATE_AND_TIME(#240,#241);
#240=CALENDAR_DATE(2020,5,2);
#241=LOCAL_TIME(8,58,27.,#242);
#242=COORDINATED_UNIVERSAL_TIME_OFFSET(0,0,.BEHIND.);
#243=AXIS2_PLACEMENT_3D('placement',#365,#282,#283);
#244=AXIS2_PLACEMENT_3D('',#366,#284,#285);
#245=AXIS2_PLACEMENT_3D('',#369,#286,#287);
#246=AXIS2_PLACEMENT_3D('',#373,#289,#290);
#247=AXIS2_PLACEMENT_3D('',#374,#291,#292);
#248=AXIS2_PLACEMENT_3D('',#375,#293,#294);
#249=AXIS2_PLACEMENT_3D('',#376,#295,#296);
#250=AXIS2_PLACEMENT_3D('',#379,#297,#298);
#251=AXIS2_PLACEMENT_3D('',#380,#299,#300);
#252=AXIS2_PLACEMENT_3D('',#381,#301,#302);
#253=AXIS2_PLACEMENT_3D('',#385,#304,#305);
#254=AXIS2_PLACEMENT_3D('',#386,#306,#307);
#255=AXIS2_PLACEMENT_3D('',#387,#308,#309);
#256=AXIS2_PLACEMENT_3D('',#390,#310,#311);
#257=AXIS2_PLACEMENT_3D('',#391,#312,#313);
#258=AXIS2_PLACEMENT_3D('',#395,#315,#316);
#259=AXIS2_PLACEMENT_3D('',#396,#317,#318);
#260=AXIS2_PLACEMENT_3D('',#397,#319,#320);
#261=AXIS2_PLACEMENT_3D('',#400,#321,#322);
#262=AXIS2_PLACEMENT_3D('',#401,#323,#324);
#263=AXIS2_PLACEMENT_3D('',#404,#325,#326);
#264=AXIS2_PLACEMENT_3D('',#405,#327,#328);
#265=AXIS2_PLACEMENT_3D('',#406,#329,#330);
#266=AXIS2_PLACEMENT_3D('',#410,#332,#333);
#267=AXIS2_PLACEMENT_3D('',#411,#334,#335);
#268=AXIS2_PLACEMENT_3D('',#412,#336,#337);
#269=AXIS2_PLACEMENT_3D('',#415,#338,#339);
#270=AXIS2_PLACEMENT_3D('',#417,#340,#341);
#271=AXIS2_PLACEMENT_3D('',#418,#342,#343);
#272=AXIS2_PLACEMENT_3D('',#419,#344,#345);
#273=AXIS2_PLACEMENT_3D('',#420,#346,#347);
#274=AXIS2_PLACEMENT_3D('',#449,#348,#349);
#275=AXIS2_PLACEMENT_3D('',#451,#350,#351);
#276=AXIS2_PLACEMENT_3D('',#453,#352,#353);
#277=AXIS2_PLACEMENT_3D('',#454,#354,#355);
#278=AXIS2_PLACEMENT_3D('',#455,#356,#357);
#279=AXIS2_PLACEMENT_3D('',#456,#358,#359);
#280=AXIS2_PLACEMENT_3D('',#457,#360,#361);
#281=AXIS2_PLACEMENT_3D('',#458,#362,#363);
#282=DIRECTION('axis',(0.,0.,1.));
#283=DIRECTION('refdir',(1.,0.,0.));
#284=DIRECTION('center_axis',(0.,-2.22044604925031E-16,1.));
#285=DIRECTION('ref_axis',(0.,1.,2.22044604925031E-16));
#286=DIRECTION('center_axis',(0.,2.22044604925031E-16,-1.));
#287=DIRECTION('ref_axis',(0.,1.,2.22044604925031E-16));
#288=DIRECTION('',(0.,2.22044604925031E-16,-1.));
#289=DIRECTION('center_axis',(0.,2.22044604925031E-16,-1.));
#290=DIRECTION('ref_axis',(0.,1.,2.22044604925031E-16));
#291=DIRECTION('center_axis',(0.,2.22044604925031E-16,-1.));
#292=DIRECTION('ref_axis',(0.,1.,2.22044604925031E-16));
#293=DIRECTION('center_axis',(0.,2.22044604925031E-16,-1.));
#294=DIRECTION('ref_axis',(0.,1.,2.22044604925031E-16));
#295=DIRECTION('center_axis',(0.,2.22044604925031E-16,-1.));
#296=DIRECTION('ref_axis',(0.,1.,2.22044604925031E-16));
#297=DIRECTION('center_axis',(0.,2.22044604925031E-16,-1.));
#298=DIRECTION('ref_axis',(0.,1.,2.22044604925031E-16));
#299=DIRECTION('center_axis',(0.,2.22044604925031E-16,-1.));
#300=DIRECTION('ref_axis',(0.,1.,2.22044604925031E-16));
#301=DIRECTION('center_axis',(0.,2.22044604925031E-16,-1.));
#302=DIRECTION('ref_axis',(0.,1.,2.22044604925031E-16));
#303=DIRECTION('',(1.06735001383576E-17,0.0871557427479404,0.996194698091721));
#304=DIRECTION('center_axis',(0.,2.22044604925031E-16,-1.));
#305=DIRECTION('ref_axis',(0.,1.,2.22044604925031E-16));
#306=DIRECTION('center_axis',(0.,2.22044604925031E-16,-1.));
#307=DIRECTION('ref_axis',(0.,1.,2.22044604925031E-16));
#308=DIRECTION('center_axis',(0.,2.22044604925031E-16,-1.));
#309=DIRECTION('ref_axis',(0.,1.,2.22044604925031E-16));
#310=DIRECTION('center_axis',(0.,2.22044604925031E-16,-1.));
#311=DIRECTION('ref_axis',(0.,1.,2.22044604925031E-16));
#312=DIRECTION('center_axis',(0.,2.22044604925031E-16,-1.));
#313=DIRECTION('ref_axis',(0.,1.,2.22044604925031E-16));
#314=DIRECTION('',(-2.12657684958261E-17,-0.173648177667489,-0.98480775301211));
#315=DIRECTION('center_axis',(0.,2.22044604925031E-16,-1.));
#316=DIRECTION('ref_axis',(0.,1.,2.22044604925031E-16));
#317=DIRECTION('center_axis',(0.,2.22044604925031E-16,-1.));
#318=DIRECTION('ref_axis',(0.,1.,2.22044604925031E-16));
#319=DIRECTION('center_axis',(0.,-2.22044604925031E-16,1.));
#320=DIRECTION('ref_axis',(0.,-1.,-2.22044604925031E-16));
#321=DIRECTION('center_axis',(0.,2.22044604925031E-16,-1.));
#322=DIRECTION('ref_axis',(0.,1.,2.22044604925031E-16));
#323=DIRECTION('center_axis',(0.,2.22044604925031E-16,-1.));
#324=DIRECTION('ref_axis',(0.,1.,2.22044604925031E-16));
#325=DIRECTION('center_axis',(0.,2.22044604925031E-16,-1.));
#326=DIRECTION('ref_axis',(0.,1.,2.22044604925031E-16));
#327=DIRECTION('center_axis',(0.,2.22044604925031E-16,-1.));
#328=DIRECTION('ref_axis',(0.,1.,2.22044604925031E-16));
#329=DIRECTION('center_axis',(0.,2.22044604925031E-16,-1.));
#330=DIRECTION('ref_axis',(0.,1.,2.22044604925031E-16));
#331=DIRECTION('',(-1.06735001383576E-17,-0.0871557427479404,-0.996194698091721));
#332=DIRECTION('center_axis',(0.,2.22044604925031E-16,-1.));
#333=DIRECTION('ref_axis',(0.,1.,2.22044604925031E-16));
#334=DIRECTION('center_axis',(0.,2.22044604925031E-16,-1.));
#335=DIRECTION('ref_axis',(0.,1.,2.22044604925031E-16));
#336=DIRECTION('center_axis',(1.22464679914735E-16,2.22044604925031E-16,
-1.));
#337=DIRECTION('ref_axis',(1.,0.,0.));
#338=DIRECTION('center_axis',(0.,2.22044604925031E-16,-1.));
#339=DIRECTION('ref_axis',(0.,1.,2.22044604925031E-16));
#340=DIRECTION('center_axis',(0.,2.22044604925031E-16,-1.));
#341=DIRECTION('ref_axis',(0.,1.,2.22044604925031E-16));
#342=DIRECTION('center_axis',(-1.22464679914735E-16,-1.,-2.22044604925031E-16));
#343=DIRECTION('ref_axis',(-1.,1.22464679914735E-16,0.));
#344=DIRECTION('center_axis',(0.,2.22044604925031E-16,-1.));
#345=DIRECTION('ref_axis',(0.,1.,2.22044604925031E-16));
#346=DIRECTION('center_axis',(0.,-2.22044604925031E-16,1.));
#347=DIRECTION('ref_axis',(0.,-1.,-2.22044604925031E-16));
#348=DIRECTION('center_axis',(1.22464679914723E-16,1.,1.61998523120101E-15));
#349=DIRECTION('ref_axis',(1.,-1.22464679914735E-16,7.62278853028036E-15));
#350=DIRECTION('center_axis',(0.,2.22044604925031E-16,-1.));
#351=DIRECTION('ref_axis',(0.,1.,2.22044604925031E-16));
#352=DIRECTION('center_axis',(0.,2.22044604925031E-16,-1.));
#353=DIRECTION('ref_axis',(0.,1.,2.22044604925031E-16));
#354=DIRECTION('center_axis',(0.,2.22044604925031E-16,-1.));
#355=DIRECTION('ref_axis',(0.,1.,2.22044604925031E-16));
#356=DIRECTION('center_axis',(0.,2.22044604925031E-16,-1.));
#357=DIRECTION('ref_axis',(0.,1.,2.13786004498625E-16));
#358=DIRECTION('center_axis',(-1.,1.22464679914735E-16,2.71926214689378E-32));
#359=DIRECTION('ref_axis',(-1.22464679914735E-16,-1.,-2.29056433391384E-16));
#360=DIRECTION('center_axis',(0.,2.22044604925031E-16,-1.));
#361=DIRECTION('ref_axis',(0.,1.,2.22044604925031E-16));
#362=DIRECTION('center_axis',(0.,-2.22044604925031E-16,1.));
#363=DIRECTION('ref_axis',(0.,-1.,-2.22044604925031E-16));
#364=DIRECTION('',(1.1503048417653E-16,-0.939295185000431,-0.343110121440635));
#365=CARTESIAN_POINT('',(0.,0.,0.));
#366=CARTESIAN_POINT('Origin',(0.,4.44089209850063E-16,-2.));
#367=CARTESIAN_POINT('',(0.,25.5,5.6621374255883E-15));
#368=CARTESIAN_POINT('',(3.12284933782575E-15,-25.5,-5.55111512312578E-15));
#369=CARTESIAN_POINT('Origin',(0.,0.,0.));
#370=CARTESIAN_POINT('',(3.12284933782575E-15,-25.5,-2.00000000000001));
#371=CARTESIAN_POINT('',(3.12284933782575E-15,-25.5,-2.00000000000001));
#372=CARTESIAN_POINT('',(0.,25.5,-1.99999999999999));
#373=CARTESIAN_POINT('Origin',(0.,4.44089209850063E-16,-2.));
#374=CARTESIAN_POINT('Origin',(0.,4.44089209850063E-16,-2.));
#375=CARTESIAN_POINT('Origin',(0.,0.,0.));
#376=CARTESIAN_POINT('Origin',(25.5,0.,0.));
#377=CARTESIAN_POINT('',(0.,29.5,6.55031584528842E-15));
#378=CARTESIAN_POINT('',(-3.61270805748469E-15,-29.5,-6.55031584528842E-15));
#379=CARTESIAN_POINT('Origin',(0.,0.,0.));
#380=CARTESIAN_POINT('Origin',(0.,0.,0.));
#381=CARTESIAN_POINT('Origin',(0.,0.,0.));
#382=CARTESIAN_POINT('',(-3.55914438659937E-15,-29.062619435068,4.99928273336804));
#383=CARTESIAN_POINT('',(-3.61270805748469E-15,-29.5,-6.55031584528841E-15));
#384=CARTESIAN_POINT('',(0.,29.0626194350692,4.99928273337086));
#385=CARTESIAN_POINT('Origin',(0.,-1.11006375943986E-15,4.99928273337085));
#386=CARTESIAN_POINT('Origin',(0.,-1.11006375943986E-15,4.99928273337085));
#387=CARTESIAN_POINT('Origin',(0.,-2.33368879776208E-15,10.51));
#388=CARTESIAN_POINT('',(0.,9.80496692310827,10.51));
#389=CARTESIAN_POINT('',(-1.20076213581201E-15,-9.8049669231,10.51));
#390=CARTESIAN_POINT('Origin',(0.,-2.33368879776208E-15,10.51));
#391=CARTESIAN_POINT('Origin',(0.,-2.33368879776208E-15,10.51));
#392=CARTESIAN_POINT('',(-1.4169163466132E-15,-11.5699999999977,0.499999999999587));
#393=CARTESIAN_POINT('',(-1.20076213581201E-15,-9.8049669231,10.51));
#394=CARTESIAN_POINT('',(0.,11.57,0.500000000000005));
#395=CARTESIAN_POINT('Origin',(0.,-1.11022302462516E-16,0.500000000000002));
#396=CARTESIAN_POINT('Origin',(0.,-1.11022302462516E-16,0.500000000000002));
#397=CARTESIAN_POINT('Origin',(6.49994273128617,-3.48610029732299E-15,15.7));
#398=CARTESIAN_POINT('',(0.,6.49994273128616,15.7));
#399=CARTESIAN_POINT('',(-6.4999427313,-2.69008689127022E-15,15.7));
#400=CARTESIAN_POINT('Origin',(0.,-3.48610029732299E-15,15.7));
#401=CARTESIAN_POINT('Origin',(0.,-3.48610029732299E-15,15.7));
#402=CARTESIAN_POINT('',(0.,6.49757028613927,15.7));
#403=CARTESIAN_POINT('',(-7.95722865310732E-16,-6.4975702861,15.7));
#404=CARTESIAN_POINT('Origin',(0.,-3.48610029732299E-15,15.7));
#405=CARTESIAN_POINT('Origin',(0.,-3.48610029732299E-15,15.7));
#406=CARTESIAN_POINT('Origin',(0.,-3.48610029732299E-15,15.7));
#407=CARTESIAN_POINT('',(-8.62151346595179E-16,-7.03999999996279,9.49999999999674));
#408=CARTESIAN_POINT('',(-7.95722865310732E-16,-6.4975702861,15.7));
#409=CARTESIAN_POINT('',(0.,7.04,9.5));
#410=CARTESIAN_POINT('Origin',(0.,-2.1094237467878E-15,9.5));
#411=CARTESIAN_POINT('Origin',(0.,-2.1094237467878E-15,9.5));
#412=CARTESIAN_POINT('Origin',(4.33680868994202E-14,-7.68591856825644E-15,
34.6142999999997));
#413=CARTESIAN_POINT('',(0.,11.1339930717442,18.0000230588162));
#414=CARTESIAN_POINT('',(11.1339930717,-4.33716983770658E-14,18.0000230588162));
#415=CARTESIAN_POINT('Origin',(0.,-3.9968080087363E-15,18.0000230588162));
#416=CARTESIAN_POINT('',(-11.1339930717,-2.63328711103767E-15,18.0000230588162));
#417=CARTESIAN_POINT('Origin',(0.,-3.9968080087363E-15,18.0000230588162));
#418=CARTESIAN_POINT('Origin',(4.33680868994202E-14,-7.68591856825644E-15,
34.6142999999997));
#419=CARTESIAN_POINT('Origin',(0.,-3.9968080087363E-15,18.0000230588162));
#420=CARTESIAN_POINT('Origin',(25.5,4.44089209850063E-16,-2.));
#421=CARTESIAN_POINT('Ctrl Pts',(11.1339930717055,-4.20081774793921E-14,
18.0000230588315));
#422=CARTESIAN_POINT('Ctrl Pts',(11.1339930717055,-11.1339930717058,18.0000230588315));
#423=CARTESIAN_POINT('Ctrl Pts',(-2.7302900722194E-13,-11.1339930717058,
18.0000230588314));
#424=CARTESIAN_POINT('Ctrl Pts',(-11.133993071706,-11.1339930717058,18.0000230588314));
#425=CARTESIAN_POINT('Ctrl Pts',(-11.133993071706,-4.2008177479392E-14,
18.0000230588314));
#426=CARTESIAN_POINT('Ctrl Pts',(-11.133993071706,11.1339930717057,18.0000230588314));
#427=CARTESIAN_POINT('Ctrl Pts',(-2.73029007221941E-13,11.1339930717057,
18.0000230588315));
#428=CARTESIAN_POINT('Ctrl Pts',(11.1339930717055,11.1339930717057,18.0000230588316));
#429=CARTESIAN_POINT('Ctrl Pts',(11.1339930717055,-4.20081774793921E-14,
18.0000230588315));
#430=CARTESIAN_POINT('Ctrl Pts',(19.9649723029672,-3.63114258335235E-14,
14.4834776384483));
#431=CARTESIAN_POINT('Ctrl Pts',(19.9649723029672,-19.9649723029675,14.4834776384483));
#432=CARTESIAN_POINT('Ctrl Pts',(-2.46290716467667E-13,-19.9649723029675,
14.4834776384481));
#433=CARTESIAN_POINT('Ctrl Pts',(-19.9649723029677,-19.9649723029675,14.483477638448));
#434=CARTESIAN_POINT('Ctrl Pts',(-19.9649723029677,-3.63114258335235E-14,
14.483477638448));
#435=CARTESIAN_POINT('Ctrl Pts',(-19.9649723029677,19.9649723029674,14.483477638448));
#436=CARTESIAN_POINT('Ctrl Pts',(-2.46290716467668E-13,19.9649723029674,
14.4834776384482));
#437=CARTESIAN_POINT('Ctrl Pts',(19.9649723029672,19.9649723029674,14.4834776384483));
#438=CARTESIAN_POINT('Ctrl Pts',(19.9649723029672,-3.63114258335235E-14,
14.4834776384483));
#439=CARTESIAN_POINT('Ctrl Pts',(27.2766030367004,-2.64717867785377E-14,
8.40957099691003));
#440=CARTESIAN_POINT('Ctrl Pts',(27.2766030367004,-27.2766030367006,8.40957099690998));
#441=CARTESIAN_POINT('Ctrl Pts',(-2.00107356840236E-13,-27.2766030367006,
8.40957099690977));
#442=CARTESIAN_POINT('Ctrl Pts',(-27.2766030367008,-27.2766030367006,8.40957099690956));
#443=CARTESIAN_POINT('Ctrl Pts',(-27.2766030367008,-2.64717867785377E-14,
8.40957099690961));
#444=CARTESIAN_POINT('Ctrl Pts',(-27.2766030367008,27.2766030367006,8.40957099690965));
#445=CARTESIAN_POINT('Ctrl Pts',(-2.00107356840236E-13,27.2766030367006,
8.40957099690986));
#446=CARTESIAN_POINT('Ctrl Pts',(27.2766030367004,27.2766030367006,8.40957099691007));
#447=CARTESIAN_POINT('Ctrl Pts',(27.2766030367004,-2.64717867785377E-14,
8.40957099691003));
#448=CARTESIAN_POINT('',(27.2766030367,-2.98122072385878E-14,8.40957099690956));
#449=CARTESIAN_POINT('Origin',(-11.0631923223069,4.96495518777808E-14,-37.7430030573009));
#450=CARTESIAN_POINT('',(0.,27.2766030367009,8.40957099690957));
#451=CARTESIAN_POINT('Origin',(0.,-1.86729986959778E-15,8.40957099690956));
#452=CARTESIAN_POINT('',(-3.34042046005076E-15,-27.2766030367,8.40957099690955));
#453=CARTESIAN_POINT('Origin',(0.,-1.86729986959778E-15,8.40957099690956));
#454=CARTESIAN_POINT('Origin',(0.,-1.86729986959778E-15,8.40957099690956));
#455=CARTESIAN_POINT('Origin',(0.,-1.01330088723031E-15,4.5635014981446));
#456=CARTESIAN_POINT('Origin',(-2.94915108944113E-15,-24.0816461652,4.56350149814459));
#457=CARTESIAN_POINT('Origin',(0.,-1.11022302462516E-16,0.5));
#458=CARTESIAN_POINT('Origin',(0.,-2.1094237467878E-15,9.5));
#459=CARTESIAN_POINT('',(-8.62151346599737E-16,7.04,9.5));
#460=UNCERTAINTY_MEASURE_WITH_UNIT(LENGTH_MEASURE(0.01),#464,
'DISTANCE_ACCURACY_VALUE',
'Maximum model space distance between geometric entities at asserted c
onnectivities');
#461=UNCERTAINTY_MEASURE_WITH_UNIT(LENGTH_MEASURE(0.01),#464,
'DISTANCE_ACCURACY_VALUE',
'Maximum model space distance between geometric entities at asserted c
onnectivities');
#462=(
GEOMETRIC_REPRESENTATION_CONTEXT(3)
GLOBAL_UNCERTAINTY_ASSIGNED_CONTEXT((#460))
GLOBAL_UNIT_ASSIGNED_CONTEXT((#464,#466,#467))
REPRESENTATION_CONTEXT('','3D')
);
#463=(
GEOMETRIC_REPRESENTATION_CONTEXT(3)
GLOBAL_UNCERTAINTY_ASSIGNED_CONTEXT((#461))
GLOBAL_UNIT_ASSIGNED_CONTEXT((#464,#466,#467))
REPRESENTATION_CONTEXT('','3D')
);
#464=(
LENGTH_UNIT()
NAMED_UNIT(*)
SI_UNIT(.MILLI.,.METRE.)
);
#465=(
LENGTH_UNIT()
NAMED_UNIT(*)
SI_UNIT(.CENTI.,.METRE.)
);
#466=(
NAMED_UNIT(*)
PLANE_ANGLE_UNIT()
SI_UNIT($,.RADIAN.)
);
#467=(
NAMED_UNIT(*)
SI_UNIT($,.STERADIAN.)
SOLID_ANGLE_UNIT()
);
#468=SHAPE_DEFINITION_REPRESENTATION(#469,#470);
#469=PRODUCT_DEFINITION_SHAPE('',$,#472);
#470=SHAPE_REPRESENTATION('',(#243),#462);
#471=PRODUCT_DEFINITION_CONTEXT('part definition',#476,'design');
#472=PRODUCT_DEFINITION('203600403',
'203600403 Teller 60 mit Anti-Slip-Platte',#473,#471);
#473=PRODUCT_DEFINITION_FORMATION('',$,#478);
#474=PRODUCT_RELATED_PRODUCT_CATEGORY(
'203600403 Teller 60 mit Anti-Slip-Platte',
'203600403 Teller 60 mit Anti-Slip-Platte',(#478));
#475=APPLICATION_PROTOCOL_DEFINITION('international standard',
'automotive_design',2009,#476);
#476=APPLICATION_CONTEXT(
'Core Data for Automotive Mechanical Design Process');
#477=PRODUCT_CONTEXT('part definition',#476,'mechanical');
#478=PRODUCT('203600403','203600403 Teller 60 mit Anti-Slip-Platte',
'Teller 60 mit Anti-Slip-Platte',(#477));
#479=PRESENTATION_STYLE_ASSIGNMENT((#480));
#480=SURFACE_STYLE_USAGE(.BOTH.,#483);
#481=SURFACE_STYLE_RENDERING_WITH_PROPERTIES($,#487,(#482));
#482=SURFACE_STYLE_TRANSPARENT(0.);
#483=SURFACE_SIDE_STYLE('',(#484,#481));
#484=SURFACE_STYLE_FILL_AREA(#485);
#485=FILL_AREA_STYLE('',(#486));
#486=FILL_AREA_STYLE_COLOUR('',#487);
#487=COLOUR_RGB('',0.,0.,0.);
ENDSEC;
END-ISO-10303-21;
