ISO-10303-21;
HEADER;
/* Generated by software containing ST-Developer
 * from STEP Tools, Inc. (www.steptools.com) 
 */

FILE_DESCRIPTION(
/* description */ ('Trapezteller 60 f\X\FCr feste Stellf\X\FC\X\DFe'),
/* implementation_level */ '2;1');

FILE_NAME(
/* name */ 
'T:\\Produktinformationen\\MT\\I40\\3D-Files I40\\Trapezteller f\X\FCr
 feste Stellf\X\FC\X\DFe\\203600500 Trapezteller 60 f\X\FCr feste Stel
lf\X\FC\X\DFe.stp',
/* time_stamp */ '2020-01-27T16:54:30+01:00',
/* author */ ('wheldmann'),
/* organization */ (''),
/* preprocessor_version */ 'ST-DEVELOPER v17.2',
/* originating_system */ 'Autodesk Inventor 2019',
/* authorisation */ ' ');

FILE_SCHEMA (('AUTOMOTIVE_DESIGN { 1 0 10303 214 3 1 1 }','AUTOMOTIVE_DESIGN { 1 0 10303 214 1 1 1 1 }'));
ENDSEC;

DATA;
#10=MECHANICAL_DESIGN_GEOMETRIC_PRESENTATION_REPRESENTATION('',(#13),#524);
#11=SHAPE_REPRESENTATION_RELATIONSHIP('SRR','None',#531,#12);
#12=ADVANCED_BREP_SHAPE_REPRESENTATION('',(#14),#523);
#13=STYLED_ITEM('',(#540),#14);
#14=MANIFOLD_SOLID_BREP('Volumenk\X\F6rper2',#271);
#15=CYLINDRICAL_SURFACE('',#330,14.74);
#16=CYLINDRICAL_SURFACE('',#336,25.);
#17=SPHERICAL_SURFACE('',#313,20.);
#18=TOROIDAL_SURFACE('',#299,27.3543043095,2.);
#19=TOROIDAL_SURFACE('',#311,15.4915728753,2.);
#20=LINE('',#450,#27);
#21=LINE('',#462,#28);
#22=LINE('',#487,#29);
#23=LINE('',#495,#30);
#24=LINE('',#499,#31);
#25=LINE('',#512,#32);
#26=LINE('',#520,#33);
#27=VECTOR('',#351,29.3530859635);
#28=VECTOR('',#366,16.9057864376);
#29=VECTOR('',#397,6.5073474701);
#30=VECTOR('',#406,7.04);
#31=VECTOR('',#411,9.7949669231);
#32=VECTOR('',#426,14.74);
#33=VECTOR('',#437,25.);
#34=CONICAL_SURFACE('',#296,29.3530859635,0.034906585);
#35=CONICAL_SURFACE('',#303,16.9057864376,0.7853981634);
#36=CONICAL_SURFACE('',#318,6.5073474701,0.0872664626);
#37=CONICAL_SURFACE('',#321,7.04,1.2194009804);
#38=CONICAL_SURFACE('',#324,9.7949669231,0.1745329252);
#39=FACE_BOUND('',#58,.T.);
#40=FACE_BOUND('',#63,.T.);
#41=FACE_BOUND('',#70,.T.);
#42=FACE_BOUND('',#73,.T.);
#43=FACE_OUTER_BOUND('',#57,.T.);
#44=FACE_OUTER_BOUND('',#59,.T.);
#45=FACE_OUTER_BOUND('',#60,.T.);
#46=FACE_OUTER_BOUND('',#61,.T.);
#47=FACE_OUTER_BOUND('',#62,.T.);
#48=FACE_OUTER_BOUND('',#64,.T.);
#49=FACE_OUTER_BOUND('',#65,.T.);
#50=FACE_OUTER_BOUND('',#66,.T.);
#51=FACE_OUTER_BOUND('',#67,.T.);
#52=FACE_OUTER_BOUND('',#68,.T.);
#53=FACE_OUTER_BOUND('',#69,.T.);
#54=FACE_OUTER_BOUND('',#71,.T.);
#55=FACE_OUTER_BOUND('',#72,.T.);
#56=FACE_OUTER_BOUND('',#74,.T.);
#57=EDGE_LOOP('',(#175,#176));
#58=EDGE_LOOP('',(#177,#178));
#59=EDGE_LOOP('',(#179,#180,#181,#182,#183,#184));
#60=EDGE_LOOP('',(#185,#186,#187,#188,#189,#190));
#61=EDGE_LOOP('',(#191,#192,#193,#194,#195,#196));
#62=EDGE_LOOP('',(#197,#198));
#63=EDGE_LOOP('',(#199,#200));
#64=EDGE_LOOP('',(#201,#202,#203,#204,#205,#206));
#65=EDGE_LOOP('',(#207,#208,#209,#210,#211,#212,#213));
#66=EDGE_LOOP('',(#214,#215,#216,#217,#218,#219,#220));
#67=EDGE_LOOP('',(#221,#222,#223,#224,#225,#226));
#68=EDGE_LOOP('',(#227,#228,#229,#230,#231,#232));
#69=EDGE_LOOP('',(#233,#234));
#70=EDGE_LOOP('',(#235,#236));
#71=EDGE_LOOP('',(#237,#238,#239,#240,#241,#242));
#72=EDGE_LOOP('',(#243,#244));
#73=EDGE_LOOP('',(#245,#246));
#74=EDGE_LOOP('',(#247,#248,#249,#250,#251,#252));
#75=CIRCLE('',#292,29.5);
#76=CIRCLE('',#293,29.5);
#77=CIRCLE('',#294,25.);
#78=CIRCLE('',#295,25.);
#79=CIRCLE('',#297,29.3530859635);
#80=CIRCLE('',#298,29.3530859635);
#81=CIRCLE('',#300,2.);
#82=CIRCLE('',#301,28.7685178719);
#83=CIRCLE('',#302,28.7685178719);
#84=CIRCLE('',#304,16.9057864376);
#85=CIRCLE('',#305,16.9057864376);
#86=CIRCLE('',#307,15.4915728753);
#87=CIRCLE('',#308,15.4915728753);
#88=CIRCLE('',#309,11.3026545555);
#89=CIRCLE('',#310,11.3026545555);
#90=CIRCLE('',#312,2.);
#91=CIRCLE('',#314,20.);
#92=CIRCLE('',#315,6.5073474701);
#93=CIRCLE('',#316,6.5073474701);
#94=CIRCLE('',#317,6.5073474701);
#95=CIRCLE('',#319,7.04);
#96=CIRCLE('',#320,7.04);
#97=CIRCLE('',#322,9.7949669231);
#98=CIRCLE('',#323,9.7949669231);
#99=CIRCLE('',#325,11.56);
#100=CIRCLE('',#326,11.56);
#101=CIRCLE('',#328,14.74);
#102=CIRCLE('',#329,14.74);
#103=CIRCLE('',#331,14.74);
#104=CIRCLE('',#332,14.74);
#105=CIRCLE('',#334,25.);
#106=CIRCLE('',#335,25.);
#107=VERTEX_POINT('',#440);
#108=VERTEX_POINT('',#441);
#109=VERTEX_POINT('',#444);
#110=VERTEX_POINT('',#445);
#111=VERTEX_POINT('',#449);
#112=VERTEX_POINT('',#451);
#113=VERTEX_POINT('',#455);
#114=VERTEX_POINT('',#457);
#115=VERTEX_POINT('',#461);
#116=VERTEX_POINT('',#463);
#117=VERTEX_POINT('',#467);
#118=VERTEX_POINT('',#468);
#119=VERTEX_POINT('',#471);
#120=VERTEX_POINT('',#472);
#121=VERTEX_POINT('',#478);
#122=VERTEX_POINT('',#480);
#123=VERTEX_POINT('',#482);
#124=VERTEX_POINT('',#486);
#125=VERTEX_POINT('',#488);
#126=VERTEX_POINT('',#492);
#127=VERTEX_POINT('',#493);
#128=VERTEX_POINT('',#498);
#129=VERTEX_POINT('',#500);
#130=VERTEX_POINT('',#504);
#131=VERTEX_POINT('',#505);
#132=VERTEX_POINT('',#509);
#133=VERTEX_POINT('',#510);
#134=VERTEX_POINT('',#515);
#135=VERTEX_POINT('',#516);
#136=EDGE_CURVE('',#107,#108,#75,.T.);
#137=EDGE_CURVE('',#108,#107,#76,.T.);
#138=EDGE_CURVE('',#109,#110,#77,.T.);
#139=EDGE_CURVE('',#110,#109,#78,.T.);
#140=EDGE_CURVE('',#108,#111,#20,.T.);
#141=EDGE_CURVE('',#111,#112,#79,.T.);
#142=EDGE_CURVE('',#112,#111,#80,.T.);
#143=EDGE_CURVE('',#111,#113,#81,.T.);
#144=EDGE_CURVE('',#113,#114,#82,.T.);
#145=EDGE_CURVE('',#114,#113,#83,.T.);
#146=EDGE_CURVE('',#113,#115,#21,.T.);
#147=EDGE_CURVE('',#115,#116,#84,.T.);
#148=EDGE_CURVE('',#116,#115,#85,.T.);
#149=EDGE_CURVE('',#117,#118,#86,.T.);
#150=EDGE_CURVE('',#118,#117,#87,.T.);
#151=EDGE_CURVE('',#119,#120,#88,.T.);
#152=EDGE_CURVE('',#120,#119,#89,.T.);
#153=EDGE_CURVE('',#115,#118,#90,.T.);
#154=EDGE_CURVE('',#120,#121,#91,.T.);
#155=EDGE_CURVE('',#121,#122,#92,.T.);
#156=EDGE_CURVE('',#122,#123,#93,.T.);
#157=EDGE_CURVE('',#123,#121,#94,.T.);
#158=EDGE_CURVE('',#123,#124,#22,.T.);
#159=EDGE_CURVE('',#124,#125,#95,.T.);
#160=EDGE_CURVE('',#125,#124,#96,.T.);
#161=EDGE_CURVE('',#126,#127,#97,.T.);
#162=EDGE_CURVE('',#127,#125,#23,.T.);
#163=EDGE_CURVE('',#127,#126,#98,.T.);
#164=EDGE_CURVE('',#126,#128,#24,.T.);
#165=EDGE_CURVE('',#128,#129,#99,.T.);
#166=EDGE_CURVE('',#129,#128,#100,.T.);
#167=EDGE_CURVE('',#130,#131,#101,.T.);
#168=EDGE_CURVE('',#131,#130,#102,.T.);
#169=EDGE_CURVE('',#132,#133,#103,.T.);
#170=EDGE_CURVE('',#133,#131,#25,.T.);
#171=EDGE_CURVE('',#133,#132,#104,.T.);
#172=EDGE_CURVE('',#134,#135,#105,.T.);
#173=EDGE_CURVE('',#135,#134,#106,.T.);
#174=EDGE_CURVE('',#110,#135,#26,.T.);
#175=ORIENTED_EDGE('',*,*,#136,.T.);
#176=ORIENTED_EDGE('',*,*,#137,.T.);
#177=ORIENTED_EDGE('',*,*,#138,.F.);
#178=ORIENTED_EDGE('',*,*,#139,.F.);
#179=ORIENTED_EDGE('',*,*,#136,.F.);
#180=ORIENTED_EDGE('',*,*,#137,.F.);
#181=ORIENTED_EDGE('',*,*,#140,.T.);
#182=ORIENTED_EDGE('',*,*,#141,.T.);
#183=ORIENTED_EDGE('',*,*,#142,.T.);
#184=ORIENTED_EDGE('',*,*,#140,.F.);
#185=ORIENTED_EDGE('',*,*,#142,.F.);
#186=ORIENTED_EDGE('',*,*,#141,.F.);
#187=ORIENTED_EDGE('',*,*,#143,.T.);
#188=ORIENTED_EDGE('',*,*,#144,.T.);
#189=ORIENTED_EDGE('',*,*,#145,.T.);
#190=ORIENTED_EDGE('',*,*,#143,.F.);
#191=ORIENTED_EDGE('',*,*,#145,.F.);
#192=ORIENTED_EDGE('',*,*,#144,.F.);
#193=ORIENTED_EDGE('',*,*,#146,.T.);
#194=ORIENTED_EDGE('',*,*,#147,.T.);
#195=ORIENTED_EDGE('',*,*,#148,.T.);
#196=ORIENTED_EDGE('',*,*,#146,.F.);
#197=ORIENTED_EDGE('',*,*,#149,.F.);
#198=ORIENTED_EDGE('',*,*,#150,.F.);
#199=ORIENTED_EDGE('',*,*,#151,.T.);
#200=ORIENTED_EDGE('',*,*,#152,.T.);
#201=ORIENTED_EDGE('',*,*,#148,.F.);
#202=ORIENTED_EDGE('',*,*,#147,.F.);
#203=ORIENTED_EDGE('',*,*,#153,.T.);
#204=ORIENTED_EDGE('',*,*,#150,.T.);
#205=ORIENTED_EDGE('',*,*,#149,.T.);
#206=ORIENTED_EDGE('',*,*,#153,.F.);
#207=ORIENTED_EDGE('',*,*,#151,.F.);
#208=ORIENTED_EDGE('',*,*,#152,.F.);
#209=ORIENTED_EDGE('',*,*,#154,.T.);
#210=ORIENTED_EDGE('',*,*,#155,.T.);
#211=ORIENTED_EDGE('',*,*,#156,.T.);
#212=ORIENTED_EDGE('',*,*,#157,.T.);
#213=ORIENTED_EDGE('',*,*,#154,.F.);
#214=ORIENTED_EDGE('',*,*,#156,.F.);
#215=ORIENTED_EDGE('',*,*,#155,.F.);
#216=ORIENTED_EDGE('',*,*,#157,.F.);
#217=ORIENTED_EDGE('',*,*,#158,.T.);
#218=ORIENTED_EDGE('',*,*,#159,.T.);
#219=ORIENTED_EDGE('',*,*,#160,.T.);
#220=ORIENTED_EDGE('',*,*,#158,.F.);
#221=ORIENTED_EDGE('',*,*,#161,.T.);
#222=ORIENTED_EDGE('',*,*,#162,.T.);
#223=ORIENTED_EDGE('',*,*,#159,.F.);
#224=ORIENTED_EDGE('',*,*,#160,.F.);
#225=ORIENTED_EDGE('',*,*,#162,.F.);
#226=ORIENTED_EDGE('',*,*,#163,.T.);
#227=ORIENTED_EDGE('',*,*,#161,.F.);
#228=ORIENTED_EDGE('',*,*,#164,.T.);
#229=ORIENTED_EDGE('',*,*,#165,.T.);
#230=ORIENTED_EDGE('',*,*,#166,.T.);
#231=ORIENTED_EDGE('',*,*,#164,.F.);
#232=ORIENTED_EDGE('',*,*,#163,.F.);
#233=ORIENTED_EDGE('',*,*,#167,.T.);
#234=ORIENTED_EDGE('',*,*,#168,.T.);
#235=ORIENTED_EDGE('',*,*,#166,.F.);
#236=ORIENTED_EDGE('',*,*,#165,.F.);
#237=ORIENTED_EDGE('',*,*,#169,.T.);
#238=ORIENTED_EDGE('',*,*,#170,.T.);
#239=ORIENTED_EDGE('',*,*,#167,.F.);
#240=ORIENTED_EDGE('',*,*,#168,.F.);
#241=ORIENTED_EDGE('',*,*,#170,.F.);
#242=ORIENTED_EDGE('',*,*,#171,.T.);
#243=ORIENTED_EDGE('',*,*,#172,.T.);
#244=ORIENTED_EDGE('',*,*,#173,.T.);
#245=ORIENTED_EDGE('',*,*,#169,.F.);
#246=ORIENTED_EDGE('',*,*,#171,.F.);
#247=ORIENTED_EDGE('',*,*,#138,.T.);
#248=ORIENTED_EDGE('',*,*,#174,.T.);
#249=ORIENTED_EDGE('',*,*,#172,.F.);
#250=ORIENTED_EDGE('',*,*,#173,.F.);
#251=ORIENTED_EDGE('',*,*,#174,.F.);
#252=ORIENTED_EDGE('',*,*,#139,.T.);
#253=PLANE('',#291);
#254=PLANE('',#306);
#255=PLANE('',#327);
#256=PLANE('',#333);
#257=ADVANCED_FACE('',(#43,#39),#253,.F.);
#258=ADVANCED_FACE('',(#44),#34,.T.);
#259=ADVANCED_FACE('',(#45),#18,.T.);
#260=ADVANCED_FACE('',(#46),#35,.T.);
#261=ADVANCED_FACE('',(#47,#40),#254,.F.);
#262=ADVANCED_FACE('',(#48),#19,.T.);
#263=ADVANCED_FACE('',(#49),#17,.F.);
#264=ADVANCED_FACE('',(#50),#36,.F.);
#265=ADVANCED_FACE('',(#51),#37,.T.);
#266=ADVANCED_FACE('',(#52),#38,.F.);
#267=ADVANCED_FACE('',(#53,#41),#255,.T.);
#268=ADVANCED_FACE('',(#54),#15,.T.);
#269=ADVANCED_FACE('',(#55,#42),#256,.T.);
#270=ADVANCED_FACE('',(#56),#16,.F.);
#271=CLOSED_SHELL('',(#257,#258,#259,#260,#261,#262,#263,#264,#265,#266,
#267,#268,#269,#270));
#272=DERIVED_UNIT_ELEMENT(#274,1.);
#273=DERIVED_UNIT_ELEMENT(#526,3.);
#274=(
MASS_UNIT()
NAMED_UNIT(*)
SI_UNIT($,.GRAM.)
);
#275=DERIVED_UNIT((#272,#273));
#276=MEASURE_REPRESENTATION_ITEM('density measure',
POSITIVE_RATIO_MEASURE(6.7),#275);
#277=PROPERTY_DEFINITION_REPRESENTATION(#282,#279);
#278=PROPERTY_DEFINITION_REPRESENTATION(#283,#280);
#279=REPRESENTATION('material name',(#281),#523);
#280=REPRESENTATION('density',(#276),#523);
#281=DESCRIPTIVE_REPRESENTATION_ITEM('ZP0410 (ZnAl4Cu1)',
'ZP0410 (ZnAl4Cu1)');
#282=PROPERTY_DEFINITION('material property','material name',#533);
#283=PROPERTY_DEFINITION('material property','density of part',#533);
#284=DATE_TIME_ROLE('creation_date');
#285=APPLIED_DATE_AND_TIME_ASSIGNMENT(#286,#284,(#533));
#286=DATE_AND_TIME(#287,#288);
#287=CALENDAR_DATE(2020,27,1);
#288=LOCAL_TIME(16,29,11.,#289);
#289=COORDINATED_UNIVERSAL_TIME_OFFSET(0,0,.BEHIND.);
#290=AXIS2_PLACEMENT_3D('placement',#438,#337,#338);
#291=AXIS2_PLACEMENT_3D('',#439,#339,#340);
#292=AXIS2_PLACEMENT_3D('',#442,#341,#342);
#293=AXIS2_PLACEMENT_3D('',#443,#343,#344);
#294=AXIS2_PLACEMENT_3D('',#446,#345,#346);
#295=AXIS2_PLACEMENT_3D('',#447,#347,#348);
#296=AXIS2_PLACEMENT_3D('',#448,#349,#350);
#297=AXIS2_PLACEMENT_3D('',#452,#352,#353);
#298=AXIS2_PLACEMENT_3D('',#453,#354,#355);
#299=AXIS2_PLACEMENT_3D('',#454,#356,#357);
#300=AXIS2_PLACEMENT_3D('',#456,#358,#359);
#301=AXIS2_PLACEMENT_3D('',#458,#360,#361);
#302=AXIS2_PLACEMENT_3D('',#459,#362,#363);
#303=AXIS2_PLACEMENT_3D('',#460,#364,#365);
#304=AXIS2_PLACEMENT_3D('',#464,#367,#368);
#305=AXIS2_PLACEMENT_3D('',#465,#369,#370);
#306=AXIS2_PLACEMENT_3D('',#466,#371,#372);
#307=AXIS2_PLACEMENT_3D('',#469,#373,#374);
#308=AXIS2_PLACEMENT_3D('',#470,#375,#376);
#309=AXIS2_PLACEMENT_3D('',#473,#377,#378);
#310=AXIS2_PLACEMENT_3D('',#474,#379,#380);
#311=AXIS2_PLACEMENT_3D('',#475,#381,#382);
#312=AXIS2_PLACEMENT_3D('',#476,#383,#384);
#313=AXIS2_PLACEMENT_3D('',#477,#385,#386);
#314=AXIS2_PLACEMENT_3D('',#479,#387,#388);
#315=AXIS2_PLACEMENT_3D('',#481,#389,#390);
#316=AXIS2_PLACEMENT_3D('',#483,#391,#392);
#317=AXIS2_PLACEMENT_3D('',#484,#393,#394);
#318=AXIS2_PLACEMENT_3D('',#485,#395,#396);
#319=AXIS2_PLACEMENT_3D('',#489,#398,#399);
#320=AXIS2_PLACEMENT_3D('',#490,#400,#401);
#321=AXIS2_PLACEMENT_3D('',#491,#402,#403);
#322=AXIS2_PLACEMENT_3D('',#494,#404,#405);
#323=AXIS2_PLACEMENT_3D('',#496,#407,#408);
#324=AXIS2_PLACEMENT_3D('',#497,#409,#410);
#325=AXIS2_PLACEMENT_3D('',#501,#412,#413);
#326=AXIS2_PLACEMENT_3D('',#502,#414,#415);
#327=AXIS2_PLACEMENT_3D('',#503,#416,#417);
#328=AXIS2_PLACEMENT_3D('',#506,#418,#419);
#329=AXIS2_PLACEMENT_3D('',#507,#420,#421);
#330=AXIS2_PLACEMENT_3D('',#508,#422,#423);
#331=AXIS2_PLACEMENT_3D('',#511,#424,#425);
#332=AXIS2_PLACEMENT_3D('',#513,#427,#428);
#333=AXIS2_PLACEMENT_3D('',#514,#429,#430);
#334=AXIS2_PLACEMENT_3D('',#517,#431,#432);
#335=AXIS2_PLACEMENT_3D('',#518,#433,#434);
#336=AXIS2_PLACEMENT_3D('',#519,#435,#436);
#337=DIRECTION('axis',(0.,0.,1.));
#338=DIRECTION('refdir',(1.,0.,0.));
#339=DIRECTION('center_axis',(0.,-2.22044604925031E-16,1.));
#340=DIRECTION('ref_axis',(0.,-1.,-2.22044604925031E-16));
#341=DIRECTION('center_axis',(0.,2.22044604925031E-16,-1.));
#342=DIRECTION('ref_axis',(0.,1.,2.22044604925031E-16));
#343=DIRECTION('center_axis',(0.,2.22044604925031E-16,-1.));
#344=DIRECTION('ref_axis',(0.,1.,2.22044604925031E-16));
#345=DIRECTION('center_axis',(0.,2.22044604925031E-16,-1.));
#346=DIRECTION('ref_axis',(0.,1.,2.22044604925031E-16));
#347=DIRECTION('center_axis',(0.,2.22044604925031E-16,-1.));
#348=DIRECTION('ref_axis',(0.,1.,2.22044604925031E-16));
#349=DIRECTION('center_axis',(0.,2.22044604925031E-16,-1.));
#350=DIRECTION('ref_axis',(0.,1.,2.22044604925031E-16));
#351=DIRECTION('',(4.27395568797542E-18,0.0348994966626385,0.999390827020488));
#352=DIRECTION('center_axis',(0.,2.22044604925031E-16,-1.));
#353=DIRECTION('ref_axis',(0.,1.,2.22044604925031E-16));
#354=DIRECTION('center_axis',(0.,2.22044604925031E-16,-1.));
#355=DIRECTION('ref_axis',(0.,1.,2.22044604925031E-16));
#356=DIRECTION('center_axis',(0.,2.22044604925031E-16,-1.));
#357=DIRECTION('ref_axis',(0.,1.,2.11800248179916E-16));
#358=DIRECTION('center_axis',(-1.,1.22464679914735E-16,2.71926214689378E-32));
#359=DIRECTION('ref_axis',(-1.22464679914735E-16,-1.,-2.26928837335624E-16));
#360=DIRECTION('center_axis',(0.,2.22044604925031E-16,-1.));
#361=DIRECTION('ref_axis',(0.,1.,2.22044604925031E-16));
#362=DIRECTION('center_axis',(0.,2.22044604925031E-16,-1.));
#363=DIRECTION('ref_axis',(0.,1.,2.22044604925031E-16));
#364=DIRECTION('center_axis',(0.,2.22044604925031E-16,-1.));
#365=DIRECTION('ref_axis',(0.,1.,2.22044604925031E-16));
#366=DIRECTION('',(8.65956056237703E-17,0.707106781188352,0.707106781184743));
#367=DIRECTION('center_axis',(0.,2.22044604925031E-16,-1.));
#368=DIRECTION('ref_axis',(0.,1.,2.22044604925031E-16));
#369=DIRECTION('center_axis',(0.,2.22044604925031E-16,-1.));
#370=DIRECTION('ref_axis',(0.,1.,2.22044604925031E-16));
#371=DIRECTION('center_axis',(0.,2.22044604925031E-16,-1.));
#372=DIRECTION('ref_axis',(0.,1.,2.22044604925031E-16));
#373=DIRECTION('center_axis',(0.,2.22044604925031E-16,-1.));
#374=DIRECTION('ref_axis',(0.,1.,2.22044604925031E-16));
#375=DIRECTION('center_axis',(0.,2.22044604925031E-16,-1.));
#376=DIRECTION('ref_axis',(0.,1.,2.22044604925031E-16));
#377=DIRECTION('center_axis',(0.,2.22044604925031E-16,-1.));
#378=DIRECTION('ref_axis',(0.,1.,2.22044604925031E-16));
#379=DIRECTION('center_axis',(0.,2.22044604925031E-16,-1.));
#380=DIRECTION('ref_axis',(0.,1.,2.22044604925031E-16));
#381=DIRECTION('center_axis',(0.,2.22044604925031E-16,-1.));
#382=DIRECTION('ref_axis',(0.,1.,2.03110017842782E-16));
#383=DIRECTION('center_axis',(-1.,1.22464679914735E-16,2.71926214689378E-32));
#384=DIRECTION('ref_axis',(-1.22464679914735E-16,-1.,-2.53887522303477E-16));
#385=DIRECTION('center_axis',(1.22464679914735E-16,2.22044604925031E-16,
-1.));
#386=DIRECTION('ref_axis',(1.,0.,0.));
#387=DIRECTION('center_axis',(-1.22464679914735E-16,-1.,-2.22044604925031E-16));
#388=DIRECTION('ref_axis',(-1.,1.22464679914735E-16,0.));
#389=DIRECTION('center_axis',(0.,2.22044604925031E-16,-1.));
#390=DIRECTION('ref_axis',(0.,1.,2.22044604925031E-16));
#391=DIRECTION('center_axis',(0.,2.22044604925031E-16,-1.));
#392=DIRECTION('ref_axis',(0.,1.,2.22044604925031E-16));
#393=DIRECTION('center_axis',(0.,2.22044604925031E-16,-1.));
#394=DIRECTION('ref_axis',(0.,1.,2.22044604925031E-16));
#395=DIRECTION('center_axis',(0.,2.22044604925031E-16,-1.));
#396=DIRECTION('ref_axis',(0.,1.,2.22044604925031E-16));
#397=DIRECTION('',(-1.06735001383576E-17,-0.0871557427479404,-0.996194698091721));
#398=DIRECTION('center_axis',(0.,2.22044604925031E-16,-1.));
#399=DIRECTION('ref_axis',(0.,1.,2.22044604925031E-16));
#400=DIRECTION('center_axis',(0.,2.22044604925031E-16,-1.));
#401=DIRECTION('ref_axis',(0.,1.,2.22044604925031E-16));
#402=DIRECTION('center_axis',(0.,-2.22044604925031E-16,1.));
#403=DIRECTION('ref_axis',(0.,-1.,-2.22044604925031E-16));
#404=DIRECTION('center_axis',(0.,2.22044604925031E-16,-1.));
#405=DIRECTION('ref_axis',(0.,1.,2.22044604925031E-16));
#406=DIRECTION('',(1.14981272027497E-16,-0.938893337307964,-0.344208223548936));
#407=DIRECTION('center_axis',(0.,2.22044604925031E-16,-1.));
#408=DIRECTION('ref_axis',(0.,1.,2.22044604925031E-16));
#409=DIRECTION('center_axis',(0.,2.22044604925031E-16,-1.));
#410=DIRECTION('ref_axis',(0.,1.,2.22044604925031E-16));
#411=DIRECTION('',(-2.12657684958261E-17,-0.173648177667489,-0.98480775301211));
#412=DIRECTION('center_axis',(0.,2.22044604925031E-16,-1.));
#413=DIRECTION('ref_axis',(0.,1.,2.22044604925031E-16));
#414=DIRECTION('center_axis',(0.,2.22044604925031E-16,-1.));
#415=DIRECTION('ref_axis',(0.,1.,2.22044604925031E-16));
#416=DIRECTION('center_axis',(0.,2.22044604925031E-16,-1.));
#417=DIRECTION('ref_axis',(0.,1.,2.22044604925031E-16));
#418=DIRECTION('center_axis',(0.,2.22044604925031E-16,-1.));
#419=DIRECTION('ref_axis',(0.,1.,2.22044604925031E-16));
#420=DIRECTION('center_axis',(0.,2.22044604925031E-16,-1.));
#421=DIRECTION('ref_axis',(0.,1.,2.22044604925031E-16));
#422=DIRECTION('center_axis',(0.,-2.22044604925031E-16,1.));
#423=DIRECTION('ref_axis',(0.,1.,2.22044604925031E-16));
#424=DIRECTION('center_axis',(0.,2.22044604925031E-16,-1.));
#425=DIRECTION('ref_axis',(0.,1.,2.22044604925031E-16));
#426=DIRECTION('',(0.,2.22044604925031E-16,-1.));
#427=DIRECTION('center_axis',(0.,2.22044604925031E-16,-1.));
#428=DIRECTION('ref_axis',(0.,1.,2.22044604925031E-16));
#429=DIRECTION('center_axis',(0.,2.22044604925031E-16,-1.));
#430=DIRECTION('ref_axis',(0.,1.,2.22044604925031E-16));
#431=DIRECTION('center_axis',(0.,2.22044604925031E-16,-1.));
#432=DIRECTION('ref_axis',(0.,1.,2.22044604925031E-16));
#433=DIRECTION('center_axis',(0.,2.22044604925031E-16,-1.));
#434=DIRECTION('ref_axis',(0.,1.,2.22044604925031E-16));
#435=DIRECTION('center_axis',(0.,-2.22044604925031E-16,1.));
#436=DIRECTION('ref_axis',(0.,1.,2.22044604925031E-16));
#437=DIRECTION('',(0.,-2.22044604925031E-16,1.));
#438=CARTESIAN_POINT('',(0.,0.,0.));
#439=CARTESIAN_POINT('Origin',(29.5,0.,0.));
#440=CARTESIAN_POINT('',(0.,29.5,6.55031584528842E-15));
#441=CARTESIAN_POINT('',(-3.61270805746046E-15,-29.4999999998021,-6.91724455492704E-12));
#442=CARTESIAN_POINT('Origin',(0.,0.,0.));
#443=CARTESIAN_POINT('Origin',(0.,0.,0.));
#444=CARTESIAN_POINT('',(0.,25.,5.55111512312578E-15));
#445=CARTESIAN_POINT('',(3.06161699786838E-15,-25.,-5.55111512312578E-15));
#446=CARTESIAN_POINT('Origin',(0.,0.,0.));
#447=CARTESIAN_POINT('Origin',(0.,0.,0.));
#448=CARTESIAN_POINT('Origin',(0.,-9.34156654068126E-16,4.20706755916688));
#449=CARTESIAN_POINT('',(-3.59471627702974E-15,-29.3530859635,4.20706755916687));
#450=CARTESIAN_POINT('',(-3.59471627702974E-15,-29.3530859635,4.20706755916687));
#451=CARTESIAN_POINT('',(0.,29.3530859635301,4.20706755916689));
#452=CARTESIAN_POINT('Origin',(0.,-9.34156654068126E-16,4.20706755916688));
#453=CARTESIAN_POINT('Origin',(0.,-9.34156654068126E-16,4.20706755916688));
#454=CARTESIAN_POINT('Origin',(0.,-9.1865816415335E-16,4.13726856576189));
#455=CARTESIAN_POINT('',(-3.52312733280358E-15,-28.7685178719,5.55148212813496));
#456=CARTESIAN_POINT('Origin',(-3.34993612155318E-15,-27.3543043095,4.13726856576188));
#457=CARTESIAN_POINT('',(0.,28.768517871865,5.55148212813498));
#458=CARTESIAN_POINT('Origin',(0.,-1.2326766558901E-15,5.55148212813497));
#459=CARTESIAN_POINT('Origin',(0.,-1.2326766558901E-15,5.55148212813497));
#460=CARTESIAN_POINT('Origin',(0.,-3.86673217053726E-15,17.4142135623731));
#461=CARTESIAN_POINT('',(-2.07036172478756E-15,-16.9057864376,17.4142135623731));
#462=CARTESIAN_POINT('',(-2.07036172478756E-15,-16.9057864376,17.4142135623731));
#463=CARTESIAN_POINT('',(0.,16.9057864376269,17.4142135623731));
#464=CARTESIAN_POINT('Origin',(0.,-3.86673217053726E-15,17.4142135623731));
#465=CARTESIAN_POINT('Origin',(0.,-3.86673217053726E-15,17.4142135623731));
#466=CARTESIAN_POINT('Origin',(0.,-3.99680288865056E-15,18.));
#467=CARTESIAN_POINT('',(0.,15.4915728752538,18.));
#468=CARTESIAN_POINT('',(-1.89717051354941E-15,-15.4915728753,18.));
#469=CARTESIAN_POINT('Origin',(0.,-3.99680288865056E-15,18.));
#470=CARTESIAN_POINT('Origin',(0.,-3.99680288865056E-15,18.));
#471=CARTESIAN_POINT('',(0.,11.3026545554573,18.));
#472=CARTESIAN_POINT('',(-11.3026545555,-2.61262691632442E-15,18.));
#473=CARTESIAN_POINT('Origin',(0.,-3.99680288865056E-15,18.));
#474=CARTESIAN_POINT('Origin',(0.,-3.99680288865056E-15,18.));
#475=CARTESIAN_POINT('Origin',(0.,-3.5527136788005E-15,16.));
#476=CARTESIAN_POINT('Origin',(-1.89717051354941E-15,-15.4915728753,16.));
#477=CARTESIAN_POINT('Origin',(1.21430643318376E-13,-7.66053886991353E-15,
34.4999999999998));
#478=CARTESIAN_POINT('',(-6.5073474701,-2.66436576088734E-15,15.588246276354));
#479=CARTESIAN_POINT('Origin',(1.21430643318376E-13,-7.66053886991353E-15,
34.4999999999998));
#480=CARTESIAN_POINT('',(0.,6.50734747006511,15.588246276354));
#481=CARTESIAN_POINT('Origin',(0.,-3.46128598590711E-15,15.588246276354));
#482=CARTESIAN_POINT('',(-7.96920225019759E-16,-6.5073474701,15.588246276354));
#483=CARTESIAN_POINT('Origin',(0.,-3.46128598590711E-15,15.588246276354));
#484=CARTESIAN_POINT('Origin',(0.,-3.46128598590711E-15,15.588246276354));
#485=CARTESIAN_POINT('Origin',(0.,-3.46128598590711E-15,15.588246276354));
#486=CARTESIAN_POINT('',(-8.62151346604189E-16,-7.04000000003636,9.50000000000318));
#487=CARTESIAN_POINT('',(-7.96920225019759E-16,-6.5073474701,15.588246276354));
#488=CARTESIAN_POINT('',(0.,7.04,9.5));
#489=CARTESIAN_POINT('Origin',(0.,-2.1094237467878E-15,9.5));
#490=CARTESIAN_POINT('Origin',(0.,-2.1094237467878E-15,9.5));
#491=CARTESIAN_POINT('Origin',(0.,-2.1094237467878E-15,9.5));
#492=CARTESIAN_POINT('',(-1.19953748901286E-15,-9.7949669231,10.51));
#493=CARTESIAN_POINT('',(-1.19953748901896E-15,9.79496692314981,10.5099999998641));
#494=CARTESIAN_POINT('Origin',(0.,-2.33368879776208E-15,10.51));
#495=CARTESIAN_POINT('',(-8.62151346599737E-16,7.04,9.5));
#496=CARTESIAN_POINT('Origin',(0.,-2.33368879776208E-15,10.51));
#497=CARTESIAN_POINT('Origin',(0.,-2.33368879776208E-15,10.51));
#498=CARTESIAN_POINT('',(-1.41569169981405E-15,-11.5599999999977,0.499999999999587));
#499=CARTESIAN_POINT('',(-1.19953748901286E-15,-9.7949669231,10.51));
#500=CARTESIAN_POINT('',(0.,11.56,0.500000000000005));
#501=CARTESIAN_POINT('Origin',(0.,-1.11022302462516E-16,0.500000000000002));
#502=CARTESIAN_POINT('Origin',(0.,-1.11022302462516E-16,0.500000000000002));
#503=CARTESIAN_POINT('Origin',(11.56,-1.11022302462516E-16,0.500000000000001));
#504=CARTESIAN_POINT('',(0.,14.74,0.500000000000003));
#505=CARTESIAN_POINT('',(1.8051293819432E-15,-14.74,0.499999999999997));
#506=CARTESIAN_POINT('Origin',(0.,-1.11022302462516E-16,0.5));
#507=CARTESIAN_POINT('Origin',(0.,-1.11022302462516E-16,0.5));
#508=CARTESIAN_POINT('Origin',(0.,0.,0.));
#509=CARTESIAN_POINT('',(0.,14.74,5.));
#510=CARTESIAN_POINT('',(1.8051293819432E-15,-14.74,5.));
#511=CARTESIAN_POINT('Origin',(0.,-1.11022302462516E-15,5.));
#512=CARTESIAN_POINT('',(1.8051293819432E-15,-14.74,-3.27293747659496E-15));
#513=CARTESIAN_POINT('Origin',(0.,-1.11022302462516E-15,5.));
#514=CARTESIAN_POINT('Origin',(14.74,-1.11022302462516E-15,5.));
#515=CARTESIAN_POINT('',(0.,25.,5.00000000000001));
#516=CARTESIAN_POINT('',(3.06161699786838E-15,-25.,4.99999999999999));
#517=CARTESIAN_POINT('Origin',(0.,-1.11022302462516E-15,5.));
#518=CARTESIAN_POINT('Origin',(0.,-1.11022302462516E-15,5.));
#519=CARTESIAN_POINT('Origin',(0.,0.,0.));
#520=CARTESIAN_POINT('',(3.06161699786838E-15,-25.,-5.55111512312578E-15));
#521=UNCERTAINTY_MEASURE_WITH_UNIT(LENGTH_MEASURE(0.01),#525,
'DISTANCE_ACCURACY_VALUE',
'Maximum model space distance between geometric entities at asserted c
onnectivities');
#522=UNCERTAINTY_MEASURE_WITH_UNIT(LENGTH_MEASURE(0.01),#525,
'DISTANCE_ACCURACY_VALUE',
'Maximum model space distance between geometric entities at asserted c
onnectivities');
#523=(
GEOMETRIC_REPRESENTATION_CONTEXT(3)
GLOBAL_UNCERTAINTY_ASSIGNED_CONTEXT((#521))
GLOBAL_UNIT_ASSIGNED_CONTEXT((#525,#527,#528))
REPRESENTATION_CONTEXT('','3D')
);
#524=(
GEOMETRIC_REPRESENTATION_CONTEXT(3)
GLOBAL_UNCERTAINTY_ASSIGNED_CONTEXT((#522))
GLOBAL_UNIT_ASSIGNED_CONTEXT((#525,#527,#528))
REPRESENTATION_CONTEXT('','3D')
);
#525=(
LENGTH_UNIT()
NAMED_UNIT(*)
SI_UNIT(.MILLI.,.METRE.)
);
#526=(
LENGTH_UNIT()
NAMED_UNIT(*)
SI_UNIT(.CENTI.,.METRE.)
);
#527=(
NAMED_UNIT(*)
PLANE_ANGLE_UNIT()
SI_UNIT($,.RADIAN.)
);
#528=(
NAMED_UNIT(*)
SI_UNIT($,.STERADIAN.)
SOLID_ANGLE_UNIT()
);
#529=SHAPE_DEFINITION_REPRESENTATION(#530,#531);
#530=PRODUCT_DEFINITION_SHAPE('',$,#533);
#531=SHAPE_REPRESENTATION('',(#290),#523);
#532=PRODUCT_DEFINITION_CONTEXT('part definition',#537,'design');
#533=PRODUCT_DEFINITION('203600500',
'203600500 Trapezteller 60 f\X\FCr feste Stellf\X\FC\X\DFe',#534,#532);
#534=PRODUCT_DEFINITION_FORMATION('',$,#539);
#535=PRODUCT_RELATED_PRODUCT_CATEGORY(
'203600500 Trapezteller 60 f\X\FCr feste Stellf\X\FC\X\DFe',
'203600500 Trapezteller 60 f\X\FCr feste Stellf\X\FC\X\DFe',(#539));
#536=APPLICATION_PROTOCOL_DEFINITION('international standard',
'automotive_design',2009,#537);
#537=APPLICATION_CONTEXT(
'Core Data for Automotive Mechanical Design Process');
#538=PRODUCT_CONTEXT('part definition',#537,'mechanical');
#539=PRODUCT('203600500',
'203600500 Trapezteller 60 f\X\FCr feste Stellf\X\FC\X\DFe',
'Trapezteller 60 f\X\FCr feste Stellf\X\FC\X\DFe',(#538));
#540=PRESENTATION_STYLE_ASSIGNMENT((#541));
#541=SURFACE_STYLE_USAGE(.BOTH.,#544);
#542=SURFACE_STYLE_RENDERING_WITH_PROPERTIES($,#548,(#543));
#543=SURFACE_STYLE_TRANSPARENT(0.);
#544=SURFACE_SIDE_STYLE('',(#545,#542));
#545=SURFACE_STYLE_FILL_AREA(#546);
#546=FILL_AREA_STYLE('',(#547));
#547=FILL_AREA_STYLE_COLOUR('',#548);
#548=COLOUR_RGB('',0.,0.,0.);
ENDSEC;
END-ISO-10303-21;
