ISO-10303-21;
HEADER;
/* Generated by software containing ST-Developer
 * from STEP Tools, Inc. (www.steptools.com) 
 */

FILE_DESCRIPTION(
/* description */ (''),
/* implementation_level */ '2;1');

FILE_NAME(
/* name */ 
'X:\\VIRI ZA WEB\\CAD DATOTEKE\\LINEARNE ENOTE UNIMOTION\\DODATNA OPRE
MA ZA LINEARNE ENOTE\\POVEZOVALNI ELEMENTI\\MATICE\\KAMEN T-8L-M8\\izv
oz\\CAD_5701.stp',
/* time_stamp */ '2016-04-16T08:05:57+02:00',
/* author */ ('Hypex'),
/* organization */ ('Hypex'),
/* preprocessor_version */ 'ST-DEVELOPER v16.1',
/* originating_system */ 'Autodesk Inventor 2016',
/* authorisation */ '');

FILE_SCHEMA (('AUTOMOTIVE_DESIGN { 1 0 10303 214 3 1 1 }'));
ENDSEC;

DATA;
#10=MECHANICAL_DESIGN_GEOMETRIC_PRESENTATION_REPRESENTATION('',(#13),#587);
#11=SHAPE_REPRESENTATION_RELATIONSHIP('SRR','None',#596,#12);
#12=ADVANCED_BREP_SHAPE_REPRESENTATION('',(#14),#586);
#13=STYLED_ITEM('',(#605),#14);
#14=MANIFOLD_SOLID_BREP('Solid1',#362);
#15=LINE('',#501,#57);
#16=LINE('',#503,#58);
#17=LINE('',#505,#59);
#18=LINE('',#507,#60);
#19=LINE('',#508,#61);
#20=LINE('',#511,#62);
#21=LINE('',#512,#63);
#22=LINE('',#515,#64);
#23=LINE('',#516,#65);
#24=LINE('',#519,#66);
#25=LINE('',#520,#67);
#26=LINE('',#523,#68);
#27=LINE('',#524,#69);
#28=LINE('',#527,#70);
#29=LINE('',#529,#71);
#30=LINE('',#530,#72);
#31=LINE('',#533,#73);
#32=LINE('',#535,#74);
#33=LINE('',#536,#75);
#34=LINE('',#539,#76);
#35=LINE('',#541,#77);
#36=LINE('',#542,#78);
#37=LINE('',#545,#79);
#38=LINE('',#547,#80);
#39=LINE('',#548,#81);
#40=LINE('',#551,#82);
#41=LINE('',#553,#83);
#42=LINE('',#554,#84);
#43=LINE('',#557,#85);
#44=LINE('',#559,#86);
#45=LINE('',#560,#87);
#46=LINE('',#563,#88);
#47=LINE('',#565,#89);
#48=LINE('',#566,#90);
#49=LINE('',#569,#91);
#50=LINE('',#571,#92);
#51=LINE('',#572,#93);
#52=LINE('',#575,#94);
#53=LINE('',#577,#95);
#54=LINE('',#578,#96);
#55=LINE('',#580,#97);
#56=LINE('',#581,#98);
#57=VECTOR('',#409,4.33678143567709);
#58=VECTOR('',#410,3.3);
#59=VECTOR('',#411,16.);
#60=VECTOR('',#412,3.3);
#61=VECTOR('',#413,4.33678143567709);
#62=VECTOR('',#416,4.2705);
#63=VECTOR('',#417,0.989949493661168);
#64=VECTOR('',#420,0.989949493661168);
#65=VECTOR('',#421,4.2705);
#66=VECTOR('',#424,4.33678143567709);
#67=VECTOR('',#425,0.989949493661168);
#68=VECTOR('',#428,0.989949493661168);
#69=VECTOR('',#429,4.33678143567709);
#70=VECTOR('',#432,1.75);
#71=VECTOR('',#433,16.);
#72=VECTOR('',#434,1.75);
#73=VECTOR('',#437,4.);
#74=VECTOR('',#438,16.);
#75=VECTOR('',#439,4.);
#76=VECTOR('',#442,1.5);
#77=VECTOR('',#443,16.);
#78=VECTOR('',#444,1.5);
#79=VECTOR('',#447,3.88908729652601);
#80=VECTOR('',#448,16.);
#81=VECTOR('',#449,3.88908729652601);
#82=VECTOR('',#452,10.5);
#83=VECTOR('',#453,16.);
#84=VECTOR('',#454,10.5);
#85=VECTOR('',#457,3.88908729652601);
#86=VECTOR('',#458,16.);
#87=VECTOR('',#459,3.88908729652601);
#88=VECTOR('',#462,1.5);
#89=VECTOR('',#463,16.);
#90=VECTOR('',#464,1.5);
#91=VECTOR('',#467,4.);
#92=VECTOR('',#468,16.);
#93=VECTOR('',#469,4.);
#94=VECTOR('',#472,1.75);
#95=VECTOR('',#473,16.);
#96=VECTOR('',#474,1.75);
#97=VECTOR('',#477,3.3);
#98=VECTOR('',#478,3.3);
#99=PLANE('',#372);
#100=PLANE('',#373);
#101=PLANE('',#374);
#102=PLANE('',#375);
#103=PLANE('',#376);
#104=PLANE('',#377);
#105=PLANE('',#378);
#106=PLANE('',#379);
#107=PLANE('',#380);
#108=PLANE('',#381);
#109=PLANE('',#382);
#110=PLANE('',#383);
#111=PLANE('',#384);
#112=PLANE('',#385);
#113=PLANE('',#386);
#114=PLANE('',#387);
#115=PLANE('',#388);
#116=FACE_BOUND('',#137,.T.);
#117=FACE_BOUND('',#148,.T.);
#118=FACE_OUTER_BOUND('',#136,.T.);
#119=FACE_OUTER_BOUND('',#138,.T.);
#120=FACE_OUTER_BOUND('',#139,.T.);
#121=FACE_OUTER_BOUND('',#140,.T.);
#122=FACE_OUTER_BOUND('',#141,.T.);
#123=FACE_OUTER_BOUND('',#142,.T.);
#124=FACE_OUTER_BOUND('',#143,.T.);
#125=FACE_OUTER_BOUND('',#144,.T.);
#126=FACE_OUTER_BOUND('',#145,.T.);
#127=FACE_OUTER_BOUND('',#146,.T.);
#128=FACE_OUTER_BOUND('',#147,.T.);
#129=FACE_OUTER_BOUND('',#149,.T.);
#130=FACE_OUTER_BOUND('',#150,.T.);
#131=FACE_OUTER_BOUND('',#151,.T.);
#132=FACE_OUTER_BOUND('',#152,.T.);
#133=FACE_OUTER_BOUND('',#153,.T.);
#134=FACE_OUTER_BOUND('',#154,.T.);
#135=FACE_OUTER_BOUND('',#155,.T.);
#136=EDGE_LOOP('',(#245,#246,#247,#248,#249,#250));
#137=EDGE_LOOP('',(#251));
#138=EDGE_LOOP('',(#252,#253,#254,#255,#256,#257));
#139=EDGE_LOOP('',(#258,#259,#260,#261));
#140=EDGE_LOOP('',(#262,#263,#264,#265));
#141=EDGE_LOOP('',(#266,#267,#268,#269));
#142=EDGE_LOOP('',(#270,#271,#272,#273));
#143=EDGE_LOOP('',(#274,#275,#276,#277));
#144=EDGE_LOOP('',(#278,#279,#280,#281));
#145=EDGE_LOOP('',(#282,#283,#284,#285));
#146=EDGE_LOOP('',(#286,#287,#288,#289));
#147=EDGE_LOOP('',(#290,#291,#292,#293));
#148=EDGE_LOOP('',(#294));
#149=EDGE_LOOP('',(#295,#296,#297,#298));
#150=EDGE_LOOP('',(#299,#300,#301,#302));
#151=EDGE_LOOP('',(#303,#304,#305,#306));
#152=EDGE_LOOP('',(#307,#308,#309,#310));
#153=EDGE_LOOP('',(#311,#312,#313,#314,#315,#316));
#154=EDGE_LOOP('',(#317,#318,#319,#320,#321,#322,#323,#324,#325,#326,#327,
#328,#329));
#155=EDGE_LOOP('',(#330,#331,#332,#333,#334,#335,#336,#337,#338,#339,#340,
#341,#342));
#156=CIRCLE('',#367,3.7295);
#157=CIRCLE('',#370,3.7295);
#158=CIRCLE('',#371,3.7295);
#159=ELLIPSE('',#365,5.27430948087046,3.7295);
#160=ELLIPSE('',#366,5.27430948087046,3.7295);
#161=ELLIPSE('',#368,5.27430948087046,3.7295);
#162=ELLIPSE('',#369,5.27430948087046,3.7295);
#163=VERTEX_POINT('',#485);
#164=VERTEX_POINT('',#486);
#165=VERTEX_POINT('',#488);
#166=VERTEX_POINT('',#490);
#167=VERTEX_POINT('',#492);
#168=VERTEX_POINT('',#494);
#169=VERTEX_POINT('',#497);
#170=VERTEX_POINT('',#500);
#171=VERTEX_POINT('',#502);
#172=VERTEX_POINT('',#504);
#173=VERTEX_POINT('',#506);
#174=VERTEX_POINT('',#510);
#175=VERTEX_POINT('',#514);
#176=VERTEX_POINT('',#518);
#177=VERTEX_POINT('',#522);
#178=VERTEX_POINT('',#526);
#179=VERTEX_POINT('',#528);
#180=VERTEX_POINT('',#532);
#181=VERTEX_POINT('',#534);
#182=VERTEX_POINT('',#538);
#183=VERTEX_POINT('',#540);
#184=VERTEX_POINT('',#544);
#185=VERTEX_POINT('',#546);
#186=VERTEX_POINT('',#550);
#187=VERTEX_POINT('',#552);
#188=VERTEX_POINT('',#556);
#189=VERTEX_POINT('',#558);
#190=VERTEX_POINT('',#562);
#191=VERTEX_POINT('',#564);
#192=VERTEX_POINT('',#568);
#193=VERTEX_POINT('',#570);
#194=VERTEX_POINT('',#574);
#195=VERTEX_POINT('',#576);
#196=EDGE_CURVE('',#163,#164,#159,.T.);
#197=EDGE_CURVE('',#165,#163,#160,.T.);
#198=EDGE_CURVE('',#166,#165,#156,.T.);
#199=EDGE_CURVE('',#167,#166,#161,.T.);
#200=EDGE_CURVE('',#168,#167,#162,.T.);
#201=EDGE_CURVE('',#164,#168,#157,.T.);
#202=EDGE_CURVE('',#169,#169,#158,.T.);
#203=EDGE_CURVE('',#165,#170,#15,.T.);
#204=EDGE_CURVE('',#170,#171,#16,.T.);
#205=EDGE_CURVE('',#172,#171,#17,.T.);
#206=EDGE_CURVE('',#173,#172,#18,.T.);
#207=EDGE_CURVE('',#173,#166,#19,.T.);
#208=EDGE_CURVE('',#163,#174,#20,.T.);
#209=EDGE_CURVE('',#174,#170,#21,.T.);
#210=EDGE_CURVE('',#175,#173,#22,.T.);
#211=EDGE_CURVE('',#175,#167,#23,.T.);
#212=EDGE_CURVE('',#164,#176,#24,.T.);
#213=EDGE_CURVE('',#176,#174,#25,.T.);
#214=EDGE_CURVE('',#177,#175,#26,.T.);
#215=EDGE_CURVE('',#177,#168,#27,.T.);
#216=EDGE_CURVE('',#171,#178,#28,.T.);
#217=EDGE_CURVE('',#179,#178,#29,.T.);
#218=EDGE_CURVE('',#172,#179,#30,.T.);
#219=EDGE_CURVE('',#178,#180,#31,.T.);
#220=EDGE_CURVE('',#181,#180,#32,.T.);
#221=EDGE_CURVE('',#179,#181,#33,.T.);
#222=EDGE_CURVE('',#180,#182,#34,.T.);
#223=EDGE_CURVE('',#183,#182,#35,.T.);
#224=EDGE_CURVE('',#181,#183,#36,.T.);
#225=EDGE_CURVE('',#182,#184,#37,.T.);
#226=EDGE_CURVE('',#185,#184,#38,.T.);
#227=EDGE_CURVE('',#183,#185,#39,.T.);
#228=EDGE_CURVE('',#184,#186,#40,.T.);
#229=EDGE_CURVE('',#187,#186,#41,.T.);
#230=EDGE_CURVE('',#185,#187,#42,.T.);
#231=EDGE_CURVE('',#186,#188,#43,.T.);
#232=EDGE_CURVE('',#189,#188,#44,.T.);
#233=EDGE_CURVE('',#187,#189,#45,.T.);
#234=EDGE_CURVE('',#188,#190,#46,.T.);
#235=EDGE_CURVE('',#191,#190,#47,.T.);
#236=EDGE_CURVE('',#189,#191,#48,.T.);
#237=EDGE_CURVE('',#190,#192,#49,.T.);
#238=EDGE_CURVE('',#193,#192,#50,.T.);
#239=EDGE_CURVE('',#191,#193,#51,.T.);
#240=EDGE_CURVE('',#192,#194,#52,.T.);
#241=EDGE_CURVE('',#195,#194,#53,.T.);
#242=EDGE_CURVE('',#193,#195,#54,.T.);
#243=EDGE_CURVE('',#195,#177,#55,.T.);
#244=EDGE_CURVE('',#194,#176,#56,.T.);
#245=ORIENTED_EDGE('',*,*,#196,.F.);
#246=ORIENTED_EDGE('',*,*,#197,.F.);
#247=ORIENTED_EDGE('',*,*,#198,.F.);
#248=ORIENTED_EDGE('',*,*,#199,.F.);
#249=ORIENTED_EDGE('',*,*,#200,.F.);
#250=ORIENTED_EDGE('',*,*,#201,.F.);
#251=ORIENTED_EDGE('',*,*,#202,.F.);
#252=ORIENTED_EDGE('',*,*,#198,.T.);
#253=ORIENTED_EDGE('',*,*,#203,.T.);
#254=ORIENTED_EDGE('',*,*,#204,.T.);
#255=ORIENTED_EDGE('',*,*,#205,.F.);
#256=ORIENTED_EDGE('',*,*,#206,.F.);
#257=ORIENTED_EDGE('',*,*,#207,.T.);
#258=ORIENTED_EDGE('',*,*,#197,.T.);
#259=ORIENTED_EDGE('',*,*,#208,.T.);
#260=ORIENTED_EDGE('',*,*,#209,.T.);
#261=ORIENTED_EDGE('',*,*,#203,.F.);
#262=ORIENTED_EDGE('',*,*,#199,.T.);
#263=ORIENTED_EDGE('',*,*,#207,.F.);
#264=ORIENTED_EDGE('',*,*,#210,.F.);
#265=ORIENTED_EDGE('',*,*,#211,.T.);
#266=ORIENTED_EDGE('',*,*,#196,.T.);
#267=ORIENTED_EDGE('',*,*,#212,.T.);
#268=ORIENTED_EDGE('',*,*,#213,.T.);
#269=ORIENTED_EDGE('',*,*,#208,.F.);
#270=ORIENTED_EDGE('',*,*,#200,.T.);
#271=ORIENTED_EDGE('',*,*,#211,.F.);
#272=ORIENTED_EDGE('',*,*,#214,.F.);
#273=ORIENTED_EDGE('',*,*,#215,.T.);
#274=ORIENTED_EDGE('',*,*,#216,.T.);
#275=ORIENTED_EDGE('',*,*,#217,.F.);
#276=ORIENTED_EDGE('',*,*,#218,.F.);
#277=ORIENTED_EDGE('',*,*,#205,.T.);
#278=ORIENTED_EDGE('',*,*,#219,.T.);
#279=ORIENTED_EDGE('',*,*,#220,.F.);
#280=ORIENTED_EDGE('',*,*,#221,.F.);
#281=ORIENTED_EDGE('',*,*,#217,.T.);
#282=ORIENTED_EDGE('',*,*,#222,.T.);
#283=ORIENTED_EDGE('',*,*,#223,.F.);
#284=ORIENTED_EDGE('',*,*,#224,.F.);
#285=ORIENTED_EDGE('',*,*,#220,.T.);
#286=ORIENTED_EDGE('',*,*,#225,.T.);
#287=ORIENTED_EDGE('',*,*,#226,.F.);
#288=ORIENTED_EDGE('',*,*,#227,.F.);
#289=ORIENTED_EDGE('',*,*,#223,.T.);
#290=ORIENTED_EDGE('',*,*,#228,.T.);
#291=ORIENTED_EDGE('',*,*,#229,.F.);
#292=ORIENTED_EDGE('',*,*,#230,.F.);
#293=ORIENTED_EDGE('',*,*,#226,.T.);
#294=ORIENTED_EDGE('',*,*,#202,.T.);
#295=ORIENTED_EDGE('',*,*,#231,.T.);
#296=ORIENTED_EDGE('',*,*,#232,.F.);
#297=ORIENTED_EDGE('',*,*,#233,.F.);
#298=ORIENTED_EDGE('',*,*,#229,.T.);
#299=ORIENTED_EDGE('',*,*,#234,.T.);
#300=ORIENTED_EDGE('',*,*,#235,.F.);
#301=ORIENTED_EDGE('',*,*,#236,.F.);
#302=ORIENTED_EDGE('',*,*,#232,.T.);
#303=ORIENTED_EDGE('',*,*,#237,.T.);
#304=ORIENTED_EDGE('',*,*,#238,.F.);
#305=ORIENTED_EDGE('',*,*,#239,.F.);
#306=ORIENTED_EDGE('',*,*,#235,.T.);
#307=ORIENTED_EDGE('',*,*,#240,.T.);
#308=ORIENTED_EDGE('',*,*,#241,.F.);
#309=ORIENTED_EDGE('',*,*,#242,.F.);
#310=ORIENTED_EDGE('',*,*,#238,.T.);
#311=ORIENTED_EDGE('',*,*,#201,.T.);
#312=ORIENTED_EDGE('',*,*,#215,.F.);
#313=ORIENTED_EDGE('',*,*,#243,.F.);
#314=ORIENTED_EDGE('',*,*,#241,.T.);
#315=ORIENTED_EDGE('',*,*,#244,.T.);
#316=ORIENTED_EDGE('',*,*,#212,.F.);
#317=ORIENTED_EDGE('',*,*,#213,.F.);
#318=ORIENTED_EDGE('',*,*,#244,.F.);
#319=ORIENTED_EDGE('',*,*,#240,.F.);
#320=ORIENTED_EDGE('',*,*,#237,.F.);
#321=ORIENTED_EDGE('',*,*,#234,.F.);
#322=ORIENTED_EDGE('',*,*,#231,.F.);
#323=ORIENTED_EDGE('',*,*,#228,.F.);
#324=ORIENTED_EDGE('',*,*,#225,.F.);
#325=ORIENTED_EDGE('',*,*,#222,.F.);
#326=ORIENTED_EDGE('',*,*,#219,.F.);
#327=ORIENTED_EDGE('',*,*,#216,.F.);
#328=ORIENTED_EDGE('',*,*,#204,.F.);
#329=ORIENTED_EDGE('',*,*,#209,.F.);
#330=ORIENTED_EDGE('',*,*,#243,.T.);
#331=ORIENTED_EDGE('',*,*,#214,.T.);
#332=ORIENTED_EDGE('',*,*,#210,.T.);
#333=ORIENTED_EDGE('',*,*,#206,.T.);
#334=ORIENTED_EDGE('',*,*,#218,.T.);
#335=ORIENTED_EDGE('',*,*,#221,.T.);
#336=ORIENTED_EDGE('',*,*,#224,.T.);
#337=ORIENTED_EDGE('',*,*,#227,.T.);
#338=ORIENTED_EDGE('',*,*,#230,.T.);
#339=ORIENTED_EDGE('',*,*,#233,.T.);
#340=ORIENTED_EDGE('',*,*,#236,.T.);
#341=ORIENTED_EDGE('',*,*,#239,.T.);
#342=ORIENTED_EDGE('',*,*,#242,.T.);
#343=CYLINDRICAL_SURFACE('',#364,3.7295);
#344=ADVANCED_FACE('',(#118,#116),#343,.F.);
#345=ADVANCED_FACE('',(#119),#99,.T.);
#346=ADVANCED_FACE('',(#120),#100,.T.);
#347=ADVANCED_FACE('',(#121),#101,.T.);
#348=ADVANCED_FACE('',(#122),#102,.T.);
#349=ADVANCED_FACE('',(#123),#103,.T.);
#350=ADVANCED_FACE('',(#124),#104,.T.);
#351=ADVANCED_FACE('',(#125),#105,.T.);
#352=ADVANCED_FACE('',(#126),#106,.T.);
#353=ADVANCED_FACE('',(#127),#107,.T.);
#354=ADVANCED_FACE('',(#128,#117),#108,.T.);
#355=ADVANCED_FACE('',(#129),#109,.T.);
#356=ADVANCED_FACE('',(#130),#110,.T.);
#357=ADVANCED_FACE('',(#131),#111,.T.);
#358=ADVANCED_FACE('',(#132),#112,.T.);
#359=ADVANCED_FACE('',(#133),#113,.T.);
#360=ADVANCED_FACE('',(#134),#114,.T.);
#361=ADVANCED_FACE('',(#135),#115,.F.);
#362=CLOSED_SHELL('',(#344,#345,#346,#347,#348,#349,#350,#351,#352,#353,
#354,#355,#356,#357,#358,#359,#360,#361));
#363=AXIS2_PLACEMENT_3D('placement',#483,#389,#390);
#364=AXIS2_PLACEMENT_3D('',#484,#391,#392);
#365=AXIS2_PLACEMENT_3D('',#487,#393,#394);
#366=AXIS2_PLACEMENT_3D('',#489,#395,#396);
#367=AXIS2_PLACEMENT_3D('',#491,#397,#398);
#368=AXIS2_PLACEMENT_3D('',#493,#399,#400);
#369=AXIS2_PLACEMENT_3D('',#495,#401,#402);
#370=AXIS2_PLACEMENT_3D('',#496,#403,#404);
#371=AXIS2_PLACEMENT_3D('',#498,#405,#406);
#372=AXIS2_PLACEMENT_3D('',#499,#407,#408);
#373=AXIS2_PLACEMENT_3D('',#509,#414,#415);
#374=AXIS2_PLACEMENT_3D('',#513,#418,#419);
#375=AXIS2_PLACEMENT_3D('',#517,#422,#423);
#376=AXIS2_PLACEMENT_3D('',#521,#426,#427);
#377=AXIS2_PLACEMENT_3D('',#525,#430,#431);
#378=AXIS2_PLACEMENT_3D('',#531,#435,#436);
#379=AXIS2_PLACEMENT_3D('',#537,#440,#441);
#380=AXIS2_PLACEMENT_3D('',#543,#445,#446);
#381=AXIS2_PLACEMENT_3D('',#549,#450,#451);
#382=AXIS2_PLACEMENT_3D('',#555,#455,#456);
#383=AXIS2_PLACEMENT_3D('',#561,#460,#461);
#384=AXIS2_PLACEMENT_3D('',#567,#465,#466);
#385=AXIS2_PLACEMENT_3D('',#573,#470,#471);
#386=AXIS2_PLACEMENT_3D('',#579,#475,#476);
#387=AXIS2_PLACEMENT_3D('',#582,#479,#480);
#388=AXIS2_PLACEMENT_3D('',#583,#481,#482);
#389=DIRECTION('axis',(0.,0.,1.));
#390=DIRECTION('refdir',(1.,0.,0.));
#391=DIRECTION('center_axis',(0.,-1.,0.));
#392=DIRECTION('ref_axis',(1.,0.,0.));
#393=DIRECTION('center_axis',(-0.707106781186548,-0.707106781186548,0.));
#394=DIRECTION('ref_axis',(0.707106781186547,-0.707106781186547,0.));
#395=DIRECTION('center_axis',(0.707106781186548,-0.707106781186548,0.));
#396=DIRECTION('ref_axis',(0.707106781186547,0.707106781186547,0.));
#397=DIRECTION('center_axis',(-3.36431219583381E-16,-1.,0.));
#398=DIRECTION('ref_axis',(1.,0.,0.));
#399=DIRECTION('center_axis',(0.707106781186548,-0.707106781186548,0.));
#400=DIRECTION('ref_axis',(0.707106781186547,0.707106781186547,0.));
#401=DIRECTION('center_axis',(-0.707106781186548,-0.707106781186548,0.));
#402=DIRECTION('ref_axis',(0.707106781186547,-0.707106781186547,0.));
#403=DIRECTION('center_axis',(0.,-1.,0.));
#404=DIRECTION('ref_axis',(1.,0.,0.));
#405=DIRECTION('center_axis',(0.,1.,0.));
#406=DIRECTION('ref_axis',(1.,0.,0.));
#407=DIRECTION('center_axis',(3.36431219583381E-16,1.,0.));
#408=DIRECTION('ref_axis',(0.,0.,1.));
#409=DIRECTION('',(0.,0.,1.));
#410=DIRECTION('',(1.,-3.36431219583381E-16,0.));
#411=DIRECTION('',(0.,0.,1.));
#412=DIRECTION('',(1.,-3.36431219583381E-16,0.));
#413=DIRECTION('',(0.,0.,1.));
#414=DIRECTION('center_axis',(-0.707106781186548,0.707106781186548,0.));
#415=DIRECTION('ref_axis',(0.,0.,1.));
#416=DIRECTION('',(0.,0.,1.));
#417=DIRECTION('',(0.707106781186548,0.707106781186548,0.));
#418=DIRECTION('center_axis',(-0.707106781186548,0.707106781186548,0.));
#419=DIRECTION('ref_axis',(0.,0.,1.));
#420=DIRECTION('',(0.707106781186548,0.707106781186548,0.));
#421=DIRECTION('',(0.,0.,1.));
#422=DIRECTION('center_axis',(0.707106781186548,0.707106781186548,0.));
#423=DIRECTION('ref_axis',(0.,0.,-1.));
#424=DIRECTION('',(0.,0.,1.));
#425=DIRECTION('',(0.707106781186548,-0.707106781186548,0.));
#426=DIRECTION('center_axis',(0.707106781186548,0.707106781186548,0.));
#427=DIRECTION('ref_axis',(0.,0.,-1.));
#428=DIRECTION('',(0.707106781186548,-0.707106781186548,0.));
#429=DIRECTION('',(0.,0.,1.));
#430=DIRECTION('center_axis',(1.,-7.93016446160826E-17,0.));
#431=DIRECTION('ref_axis',(0.,0.,-1.));
#432=DIRECTION('',(-7.93016446160826E-17,-1.,0.));
#433=DIRECTION('',(0.,0.,1.));
#434=DIRECTION('',(-7.93016446160826E-17,-1.,0.));
#435=DIRECTION('center_axis',(0.,1.,0.));
#436=DIRECTION('ref_axis',(0.,0.,1.));
#437=DIRECTION('',(1.,0.,0.));
#438=DIRECTION('',(0.,0.,1.));
#439=DIRECTION('',(1.,0.,0.));
#440=DIRECTION('center_axis',(1.,0.,0.));
#441=DIRECTION('ref_axis',(0.,0.,-1.));
#442=DIRECTION('',(0.,-1.,0.));
#443=DIRECTION('',(0.,0.,1.));
#444=DIRECTION('',(0.,-1.,0.));
#445=DIRECTION('center_axis',(0.707106781186548,-0.707106781186547,0.));
#446=DIRECTION('ref_axis',(0.,0.,-1.));
#447=DIRECTION('',(-0.707106781186547,-0.707106781186548,0.));
#448=DIRECTION('',(0.,0.,1.));
#449=DIRECTION('',(-0.707106781186547,-0.707106781186548,0.));
#450=DIRECTION('center_axis',(0.,-1.,0.));
#451=DIRECTION('ref_axis',(0.,0.,-1.));
#452=DIRECTION('',(-1.,0.,0.));
#453=DIRECTION('',(0.,0.,1.));
#454=DIRECTION('',(-1.,0.,0.));
#455=DIRECTION('center_axis',(-0.707106781186548,-0.707106781186547,0.));
#456=DIRECTION('ref_axis',(0.,0.,1.));
#457=DIRECTION('',(-0.707106781186547,0.707106781186548,0.));
#458=DIRECTION('',(0.,0.,1.));
#459=DIRECTION('',(-0.707106781186547,0.707106781186548,0.));
#460=DIRECTION('center_axis',(-1.,0.,0.));
#461=DIRECTION('ref_axis',(0.,0.,1.));
#462=DIRECTION('',(0.,1.,0.));
#463=DIRECTION('',(0.,0.,1.));
#464=DIRECTION('',(0.,1.,0.));
#465=DIRECTION('center_axis',(0.,1.,0.));
#466=DIRECTION('ref_axis',(0.,0.,1.));
#467=DIRECTION('',(1.,0.,0.));
#468=DIRECTION('',(0.,0.,1.));
#469=DIRECTION('',(1.,0.,0.));
#470=DIRECTION('center_axis',(-1.,0.,0.));
#471=DIRECTION('ref_axis',(0.,0.,1.));
#472=DIRECTION('',(0.,1.,0.));
#473=DIRECTION('',(0.,0.,1.));
#474=DIRECTION('',(0.,1.,0.));
#475=DIRECTION('center_axis',(0.,1.,0.));
#476=DIRECTION('ref_axis',(0.,0.,1.));
#477=DIRECTION('',(1.,0.,0.));
#478=DIRECTION('',(1.,0.,0.));
#479=DIRECTION('center_axis',(0.,0.,1.));
#480=DIRECTION('ref_axis',(1.,0.,0.));
#481=DIRECTION('center_axis',(0.,0.,1.));
#482=DIRECTION('ref_axis',(1.,0.,0.));
#483=CARTESIAN_POINT('',(0.,0.,0.));
#484=CARTESIAN_POINT('Origin',(-5.14475443227648,26.0514736335323,8.));
#485=CARTESIAN_POINT('',(-5.14475443227648,7.94207381209306,11.7295));
#486=CARTESIAN_POINT('',(-5.84475443227648,8.64207381209307,11.6632185643229));
#487=CARTESIAN_POINT('Origin',(-5.14475443227648,7.94207381209307,8.));
#488=CARTESIAN_POINT('',(-4.44475443227648,8.64207381209307,11.6632185643229));
#489=CARTESIAN_POINT('Origin',(-5.14475443227648,7.94207381209306,8.));
#490=CARTESIAN_POINT('',(-4.44475443227648,8.64207381209307,4.33678143567709));
#491=CARTESIAN_POINT('Origin',(-5.14475443227648,8.64207381209307,8.));
#492=CARTESIAN_POINT('',(-5.14475443227648,7.94207381209306,4.2705));
#493=CARTESIAN_POINT('Origin',(-5.14475443227648,7.94207381209306,8.));
#494=CARTESIAN_POINT('',(-5.84475443227648,8.64207381209307,4.33678143567709));
#495=CARTESIAN_POINT('Origin',(-5.14475443227648,7.94207381209307,8.));
#496=CARTESIAN_POINT('Origin',(-5.14475443227648,8.64207381209307,8.));
#497=CARTESIAN_POINT('',(-1.41525443227648,2.64207381209306,8.));
#498=CARTESIAN_POINT('Origin',(-5.14475443227648,2.64207381209307,8.));
#499=CARTESIAN_POINT('Origin',(-4.44475443227648,8.64207381209307,0.));
#500=CARTESIAN_POINT('',(-4.44475443227648,8.64207381209307,16.));
#501=CARTESIAN_POINT('',(-4.44475443227648,8.64207381209307,0.));
#502=CARTESIAN_POINT('',(-1.14475443227648,8.64207381209306,16.));
#503=CARTESIAN_POINT('',(-4.44475443227648,8.64207381209307,16.));
#504=CARTESIAN_POINT('',(-1.14475443227648,8.64207381209306,0.));
#505=CARTESIAN_POINT('',(-1.14475443227648,8.64207381209306,0.));
#506=CARTESIAN_POINT('',(-4.44475443227648,8.64207381209307,0.));
#507=CARTESIAN_POINT('',(-4.44475443227648,8.64207381209307,0.));
#508=CARTESIAN_POINT('',(-4.44475443227648,8.64207381209307,0.));
#509=CARTESIAN_POINT('Origin',(-5.14475443227648,7.94207381209307,0.));
#510=CARTESIAN_POINT('',(-5.14475443227648,7.94207381209307,16.));
#511=CARTESIAN_POINT('',(-5.14475443227648,7.94207381209307,0.));
#512=CARTESIAN_POINT('',(-5.14475443227648,7.94207381209307,16.));
#513=CARTESIAN_POINT('Origin',(-5.14475443227648,7.94207381209307,0.));
#514=CARTESIAN_POINT('',(-5.14475443227648,7.94207381209307,0.));
#515=CARTESIAN_POINT('',(-5.14475443227648,7.94207381209307,0.));
#516=CARTESIAN_POINT('',(-5.14475443227648,7.94207381209307,0.));
#517=CARTESIAN_POINT('Origin',(-5.84475443227648,8.64207381209307,0.));
#518=CARTESIAN_POINT('',(-5.84475443227648,8.64207381209307,16.));
#519=CARTESIAN_POINT('',(-5.84475443227648,8.64207381209307,0.));
#520=CARTESIAN_POINT('',(-5.84475443227648,8.64207381209307,16.));
#521=CARTESIAN_POINT('Origin',(-5.84475443227648,8.64207381209307,0.));
#522=CARTESIAN_POINT('',(-5.84475443227648,8.64207381209307,0.));
#523=CARTESIAN_POINT('',(-5.84475443227648,8.64207381209307,0.));
#524=CARTESIAN_POINT('',(-5.84475443227648,8.64207381209307,0.));
#525=CARTESIAN_POINT('Origin',(-1.14475443227648,8.64207381209306,0.));
#526=CARTESIAN_POINT('',(-1.14475443227648,6.89207381209307,16.));
#527=CARTESIAN_POINT('',(-1.14475443227648,8.64207381209306,16.));
#528=CARTESIAN_POINT('',(-1.14475443227648,6.89207381209307,0.));
#529=CARTESIAN_POINT('',(-1.14475443227648,6.89207381209307,0.));
#530=CARTESIAN_POINT('',(-1.14475443227648,8.64207381209306,0.));
#531=CARTESIAN_POINT('Origin',(-1.14475443227648,6.89207381209307,0.));
#532=CARTESIAN_POINT('',(2.85524556772352,6.89207381209307,16.));
#533=CARTESIAN_POINT('',(-1.14475443227648,6.89207381209307,16.));
#534=CARTESIAN_POINT('',(2.85524556772352,6.89207381209307,0.));
#535=CARTESIAN_POINT('',(2.85524556772352,6.89207381209307,0.));
#536=CARTESIAN_POINT('',(-1.14475443227648,6.89207381209307,0.));
#537=CARTESIAN_POINT('Origin',(2.85524556772352,6.89207381209307,0.));
#538=CARTESIAN_POINT('',(2.85524556772352,5.39207381209307,16.));
#539=CARTESIAN_POINT('',(2.85524556772352,6.89207381209307,16.));
#540=CARTESIAN_POINT('',(2.85524556772352,5.39207381209307,0.));
#541=CARTESIAN_POINT('',(2.85524556772352,5.39207381209307,0.));
#542=CARTESIAN_POINT('',(2.85524556772352,6.89207381209307,0.));
#543=CARTESIAN_POINT('Origin',(2.85524556772352,5.39207381209307,0.));
#544=CARTESIAN_POINT('',(0.105245567723524,2.64207381209306,16.));
#545=CARTESIAN_POINT('',(2.85524556772352,5.39207381209307,16.));
#546=CARTESIAN_POINT('',(0.105245567723524,2.64207381209306,0.));
#547=CARTESIAN_POINT('',(0.105245567723524,2.64207381209306,0.));
#548=CARTESIAN_POINT('',(2.85524556772352,5.39207381209307,0.));
#549=CARTESIAN_POINT('Origin',(0.105245567723524,2.64207381209306,0.));
#550=CARTESIAN_POINT('',(-10.3947544322765,2.64207381209306,16.));
#551=CARTESIAN_POINT('',(0.105245567723524,2.64207381209306,16.));
#552=CARTESIAN_POINT('',(-10.3947544322765,2.64207381209306,0.));
#553=CARTESIAN_POINT('',(-10.3947544322765,2.64207381209306,0.));
#554=CARTESIAN_POINT('',(0.105245567723524,2.64207381209306,0.));
#555=CARTESIAN_POINT('Origin',(-10.3947544322765,2.64207381209306,0.));
#556=CARTESIAN_POINT('',(-13.1447544322765,5.39207381209307,16.));
#557=CARTESIAN_POINT('',(-10.3947544322765,2.64207381209306,16.));
#558=CARTESIAN_POINT('',(-13.1447544322765,5.39207381209307,0.));
#559=CARTESIAN_POINT('',(-13.1447544322765,5.39207381209307,0.));
#560=CARTESIAN_POINT('',(-10.3947544322765,2.64207381209306,0.));
#561=CARTESIAN_POINT('Origin',(-13.1447544322765,5.39207381209307,0.));
#562=CARTESIAN_POINT('',(-13.1447544322765,6.89207381209307,16.));
#563=CARTESIAN_POINT('',(-13.1447544322765,5.39207381209307,16.));
#564=CARTESIAN_POINT('',(-13.1447544322765,6.89207381209307,0.));
#565=CARTESIAN_POINT('',(-13.1447544322765,6.89207381209307,0.));
#566=CARTESIAN_POINT('',(-13.1447544322765,5.39207381209307,0.));
#567=CARTESIAN_POINT('Origin',(-13.1447544322765,6.89207381209307,0.));
#568=CARTESIAN_POINT('',(-9.14475443227648,6.89207381209307,16.));
#569=CARTESIAN_POINT('',(-13.1447544322765,6.89207381209307,16.));
#570=CARTESIAN_POINT('',(-9.14475443227648,6.89207381209307,0.));
#571=CARTESIAN_POINT('',(-9.14475443227648,6.89207381209307,0.));
#572=CARTESIAN_POINT('',(-13.1447544322765,6.89207381209307,0.));
#573=CARTESIAN_POINT('Origin',(-9.14475443227648,6.89207381209307,0.));
#574=CARTESIAN_POINT('',(-9.14475443227648,8.64207381209307,16.));
#575=CARTESIAN_POINT('',(-9.14475443227648,6.89207381209307,16.));
#576=CARTESIAN_POINT('',(-9.14475443227648,8.64207381209307,0.));
#577=CARTESIAN_POINT('',(-9.14475443227648,8.64207381209307,0.));
#578=CARTESIAN_POINT('',(-9.14475443227648,6.89207381209307,0.));
#579=CARTESIAN_POINT('Origin',(-9.14475443227648,8.64207381209307,0.));
#580=CARTESIAN_POINT('',(-9.14475443227648,8.64207381209307,0.));
#581=CARTESIAN_POINT('',(-9.14475443227648,8.64207381209307,16.));
#582=CARTESIAN_POINT('Origin',(-5.14475443227648,5.63831876782091,16.));
#583=CARTESIAN_POINT('Origin',(-5.14475443227648,5.63831876782091,0.));
#584=UNCERTAINTY_MEASURE_WITH_UNIT(LENGTH_MEASURE(0.01),#588,
'DISTANCE_ACCURACY_VALUE',
'Maximum model space distance between geometric entities at asserted c
onnectivities');
#585=UNCERTAINTY_MEASURE_WITH_UNIT(LENGTH_MEASURE(1.E-6),#588,
'DISTANCE_ACCURACY_VALUE',
'Maximum model space distance between geometric entities at asserted c
onnectivities');
#586=(
GEOMETRIC_REPRESENTATION_CONTEXT(3)
GLOBAL_UNCERTAINTY_ASSIGNED_CONTEXT((#584))
GLOBAL_UNIT_ASSIGNED_CONTEXT((#588,#591,#589))
REPRESENTATION_CONTEXT('','3D')
);
#587=(
GEOMETRIC_REPRESENTATION_CONTEXT(3)
GLOBAL_UNCERTAINTY_ASSIGNED_CONTEXT((#585))
GLOBAL_UNIT_ASSIGNED_CONTEXT((#588,#591,#589))
REPRESENTATION_CONTEXT('','3D')
);
#588=(
LENGTH_UNIT()
NAMED_UNIT(*)
SI_UNIT(.MILLI.,.METRE.)
);
#589=(
NAMED_UNIT(*)
SI_UNIT($,.STERADIAN.)
SOLID_ANGLE_UNIT()
);
#590=DIMENSIONAL_EXPONENTS(0.,0.,0.,0.,0.,0.,0.);
#591=(
CONVERSION_BASED_UNIT('degree',#593)
NAMED_UNIT(#590)
PLANE_ANGLE_UNIT()
);
#592=(
NAMED_UNIT(*)
PLANE_ANGLE_UNIT()
SI_UNIT($,.RADIAN.)
);
#593=PLANE_ANGLE_MEASURE_WITH_UNIT(PLANE_ANGLE_MEASURE(0.01745329252),#592);
#594=SHAPE_DEFINITION_REPRESENTATION(#595,#596);
#595=PRODUCT_DEFINITION_SHAPE('',$,#598);
#596=SHAPE_REPRESENTATION('',(#363),#586);
#597=PRODUCT_DEFINITION_CONTEXT('part definition',#602,'design');
#598=PRODUCT_DEFINITION('CAD_5701','CAD_5701',#599,#597);
#599=PRODUCT_DEFINITION_FORMATION('',$,#604);
#600=PRODUCT_RELATED_PRODUCT_CATEGORY('CAD_5701','CAD_5701',(#604));
#601=APPLICATION_PROTOCOL_DEFINITION('international standard',
'automotive_design',2009,#602);
#602=APPLICATION_CONTEXT(
'Core Data for Automotive Mechanical Design Process');
#603=PRODUCT_CONTEXT('part definition',#602,'mechanical');
#604=PRODUCT('CAD_5701','CAD_5701',$,(#603));
#605=PRESENTATION_STYLE_ASSIGNMENT((#606));
#606=SURFACE_STYLE_USAGE(.BOTH.,#607);
#607=SURFACE_SIDE_STYLE('',(#608));
#608=SURFACE_STYLE_FILL_AREA(#609);
#609=FILL_AREA_STYLE('',(#610));
#610=FILL_AREA_STYLE_COLOUR('',#611);
#611=COLOUR_RGB('',0.67843137254902,0.768627450980392,0.811764705882353);
ENDSEC;
END-ISO-10303-21;
